  0
SECTION
  2
HEADER
  9
$ACADVER
  1
AC1015
  9
$ACADMAINTVER
 70
     6
  9
$DWGCODEPAGE
  3
ANSI_1254
  9
$INSBASE
 10
0.0
 20
0.0
 30
0.0
  9
$EXTMIN
 10
0.0
 20
0.0
 30
0.0
  9
$EXTMAX
 10
279.4
 20
215.9
 30
0.0
  9
$LIMMIN
 10
0.0
 20
0.0
  9
$LIMMAX
 10
279.4
 20
215.9
  9
$ORTHOMODE
 70
     0
  9
$REGENMODE
 70
     1
  9
$FILLMODE
 70
     1
  9
$QTEXTMODE
 70
     0
  9
$MIRRTEXT
 70
     1
  9
$LTSCALE
 40
1.0
  9
$ATTMODE
 70
     1
  9
$TEXTSIZE
 40
3.5
  9
$TRACEWID
 40
1.0
  9
$TEXTSTYLE
  7
Standard
  9
$CLAYER
  8
0
  9
$CELTYPE
  6
ByLayer
  9
$CECOLOR
 62
   256
  9
$CELTSCALE
 40
1.0
  9
$DISPSILH
 70
     0
  9
$DIMSCALE
 40
1.0
  9
$DIMASZ
 40
3.5
  9
$DIMEXO
 40
1.0
  9
$DIMDLI
 40
3.75
  9
$DIMRND
 40
0.0
  9
$DIMDLE
 40
0.0
  9
$DIMEXE
 40
1.0
  9
$DIMTP
 40
0.0
  9
$DIMTM
 40
0.0
  9
$DIMTXT
 40
3.5
  9
$DIMCEN
 40
2.5
  9
$DIMTSZ
 40
0.0
  9
$DIMTOL
 70
     0
  9
$DIMLIM
 70
     0
  9
$DIMTIH
 70
     1
  9
$DIMTOH
 70
     1
  9
$DIMSE1
 70
     0
  9
$DIMSE2
 70
     0
  9
$DIMTAD
 70
     1
  9
$DIMZIN
 70
     0
  9
$DIMBLK
  1

  9
$DIMASO
 70
     1
  9
$DIMSHO
 70
     1
  9
$DIMPOST
  1

  9
$DIMAPOST
  1

  9
$DIMALT
 70
     0
  9
$DIMALTD
 70
     3
  9
$DIMALTF
 40
0.0393700787
  9
$DIMLFAC
 40
1.0
  9
$DIMTOFL
 70
     1
  9
$DIMTVP
 40
0.0
  9
$DIMTIX
 70
     0
  9
$DIMSOXD
 70
     0
  9
$DIMSAH
 70
     0
  9
$DIMBLK1
  1

  9
$DIMBLK2
  1

  9
$DIMSTYLE
  2
ISO-25
  9
$DIMCLRD
 70
     0
  9
$DIMCLRE
 70
     0
  9
$DIMCLRT
 70
     0
  9
$DIMTFAC
 40
1.0
  9
$DIMGAP
 40
1.524
  9
$DIMJUST
 70
     0
  9
$DIMSD1
 70
     0
  9
$DIMSD2
 70
     0
  9
$DIMTOLJ
 70
     0
  9
$DIMTZIN
 70
     0
  9
$DIMALTZ
 70
     0
  9
$DIMALTTZ
 70
     0
  9
$DIMUPT
 70
     0
  9
$DIMDEC
 70
     2
  9
$DIMTDEC
 70
     2
  9
$DIMALTU
 70
     2
  9
$DIMALTTD
 70
     3
  9
$DIMTXSTY
  7
Standard
  9
$DIMAUNIT
 70
     0
  9
$DIMADEC
 70
     2
  9
$DIMALTRND
 40
0.0
  9
$DIMAZIN
 70
     0
  9
$DIMDSEP
 70
    44
  9
$DIMATFIT
 70
     3
  9
$DIMFRAC
 70
     0
  9
$DIMLDRBLK
  1

  9
$DIMLUNIT
 70
     2
  9
$DIMLWD
 70
    -2
  9
$DIMLWE
 70
    -2
  9
$DIMTMOVE
 70
     0
  9
$LUNITS
 70
     2
  9
$LUPREC
 70
     2
  9
$SKETCHINC
 40
1.0
  9
$FILLETRAD
 40
10.0
  9
$AUNITS
 70
     0
  9
$AUPREC
 70
     2
  9
$MENU
  1
.
  9
$ELEVATION
 40
0.0
  9
$PELEVATION
 40
0.0
  9
$THICKNESS
 40
0.0
  9
$LIMCHECK
 70
     0
  9
$CHAMFERA
 40
0.0
  9
$CHAMFERB
 40
0.0
  9
$CHAMFERC
 40
0.0
  9
$CHAMFERD
 40
0.0
  9
$SKPOLY
 70
     0
  9
$TDCREATE
 40
2459948.579373518
  9
$TDUCREATE
 40
2459948.454373518
  9
$TDUPDATE
 40
2459948.579373704
  9
$TDUUPDATE
 40
2459948.454373704
  9
$TDINDWG
 40
0.0000000116
  9
$TDUSRTIMER
 40
0.0000000116
  9
$USRTIMER
 70
     1
  9
$ANGBASE
 50
0.0
  9
$ANGDIR
 70
     0
  9
$PDMODE
 70
     0
  9
$PDSIZE
 40
-1.0
  9
$PLINEWID
 40
0.0
  9
$SPLFRAME
 70
     0
  9
$SPLINETYPE
 70
     6
  9
$SPLINESEGS
 70
     8
  9
$HANDSEED
  5
16A
  9
$SURFTAB1
 70
     6
  9
$SURFTAB2
 70
     6
  9
$SURFTYPE
 70
     6
  9
$SURFU
 70
     6
  9
$SURFV
 70
     6
  9
$UCSBASE
  2

  9
$UCSNAME
  2

  9
$UCSORG
 10
0.0
 20
0.0
 30
0.0
  9
$UCSXDIR
 10
1.0
 20
0.0
 30
0.0
  9
$UCSYDIR
 10
0.0
 20
1.0
 30
0.0
  9
$UCSORTHOREF
  2

  9
$UCSORTHOVIEW
 70
     0
  9
$UCSORGTOP
 10
0.0
 20
0.0
 30
0.0
  9
$UCSORGBOTTOM
 10
0.0
 20
0.0
 30
0.0
  9
$UCSORGLEFT
 10
0.0
 20
0.0
 30
0.0
  9
$UCSORGRIGHT
 10
0.0
 20
0.0
 30
0.0
  9
$UCSORGFRONT
 10
0.0
 20
0.0
 30
0.0
  9
$UCSORGBACK
 10
0.0
 20
0.0
 30
0.0
  9
$PUCSBASE
  2

  9
$PUCSNAME
  2

  9
$PUCSORG
 10
0.0
 20
0.0
 30
0.0
  9
$PUCSXDIR
 10
1.0
 20
0.0
 30
0.0
  9
$PUCSYDIR
 10
0.0
 20
1.0
 30
0.0
  9
$PUCSORTHOREF
  2

  9
$PUCSORTHOVIEW
 70
     0
  9
$PUCSORGTOP
 10
0.0
 20
0.0
 30
0.0
  9
$PUCSORGBOTTOM
 10
0.0
 20
0.0
 30
0.0
  9
$PUCSORGLEFT
 10
0.0
 20
0.0
 30
0.0
  9
$PUCSORGRIGHT
 10
0.0
 20
0.0
 30
0.0
  9
$PUCSORGFRONT
 10
0.0
 20
0.0
 30
0.0
  9
$PUCSORGBACK
 10
0.0
 20
0.0
 30
0.0
  9
$USERI1
 70
     0
  9
$USERI2
 70
     0
  9
$USERI3
 70
     0
  9
$USERI4
 70
     0
  9
$USERI5
 70
     0
  9
$USERR1
 40
0.0
  9
$USERR2
 40
0.0
  9
$USERR3
 40
0.0
  9
$USERR4
 40
0.0
  9
$USERR5
 40
0.0
  9
$WORLDVIEW
 70
     1
  9
$SHADEDGE
 70
     3
  9
$SHADEDIF
 70
    70
  9
$TILEMODE
 70
     1
  9
$MAXACTVP
 70
    64
  9
$PINSBASE
 10
0.0
 20
0.0
 30
0.0
  9
$PLIMCHECK
 70
     0
  9
$PEXTMIN
 10
1.0000000000E+20
 20
1.0000000000E+20
 30
1.0000000000E+20
  9
$PEXTMAX
 10
-1.0000000000E+20
 20
-1.0000000000E+20
 30
-1.0000000000E+20
  9
$PLIMMIN
 10
0.0
 20
0.0
  9
$PLIMMAX
 10
420.0
 20
297.0
  9
$UNITMODE
 70
     0
  9
$VISRETAIN
 70
     1
  9
$PLINEGEN
 70
     0
  9
$PSLTSCALE
 70
     1
  9
$TREEDEPTH
 70
  3020
  9
$CMLSTYLE
  2
Standard
  9
$CMLJUST
 70
     0
  9
$CMLSCALE
 40
20.0
  9
$PROXYGRAPHICS
 70
     1
  9
$MEASUREMENT
 70
     1
  9
$CELWEIGHT
370
    -1
  9
$ENDCAPS
280
     0
  9
$JOINSTYLE
280
     0
  9
$LWDISPLAY
290
     1
  9
$INSUNITS
 70
     4
  9
$HYPERLINKBASE
  1

  9
$STYLESHEET
  1

  9
$XEDIT
290
     1
  9
$CEPSNTYPE
380
     0
  9
$PSTYLEMODE
290
     1
  9
$FINGERPRINTGUID
  2
{09da065e-3726-40ab-9ed1-9db1f5ee7d47}
  9
$VERSIONGUID
  2
{FAEB1C32-E019-11D5-929B-00C0DF256EC4}
  9
$EXTNAMES
290
     1
  9
$PSVPSCALE
 40
0.0
  9
$OLESTARTUP
290
     0
  0
ENDSEC
  0
SECTION
  2
CLASSES
  0
CLASS
  1
ACDBDICTIONARYWDFLT
  2
AcDbDictionaryWithDefault
  3
ObjectDBX Classes
 90
        0
280
     0
281
     0
  0
CLASS
  1
VISUALSTYLE
  2
AcDbVisualStyle
  3
ObjectDBX Classes
 90
     4095
280
     0
281
     0
  0
CLASS
  1
MATERIAL
  2
AcDbMaterial
  3
ObjectDBX Classes
 90
     1153
280
     0
281
     0
  0
CLASS
  1
SCALE
  2
AcDbScale
  3
ObjectDBX Classes
 90
     1153
280
     0
281
     0
  0
CLASS
  1
TABLESTYLE
  2
AcDbTableStyle
  3
ObjectDBX Classes
 90
     4095
280
     0
281
     0
  0
CLASS
  1
MLEADERSTYLE
  2
AcDbMLeaderStyle
  3
ACDB_MLEADERSTYLE_CLASS
 90
     4095
280
     0
281
     0
  0
CLASS
  1
SUN
  2
AcDbSun
  3
SCENEOE
 90
     1153
280
     0
281
     0
  0
CLASS
  1
ACDBPLACEHOLDER
  2
AcDbPlaceHolder
  3
ObjectDBX Classes
 90
        0
280
     0
281
     0
  0
CLASS
  1
LAYOUT
  2
AcDbLayout
  3
ObjectDBX Classes
 90
        0
280
     0
281
     0
  0
ENDSEC
  0
SECTION
  2
TABLES
  0
TABLE
  2
VPORT
  5
8
330
0
100
AcDbSymbolTable
 70
     1
  0
VPORT
  5
29
330
8
100
AcDbSymbolTableRecord
100
AcDbViewportTableRecord
  2
*Active
 70
     0
 10
0.0
 20
0.0
 11
1.0
 21
1.0
 12
139.7
 22
107.95
 13
0.0
 23
0.0
 14
10.0
 24
10.0
 15
10.0
 25
10.0
 16
0.0
 26
0.0
 36
1.0
 17
0.0
 27
0.0
 37
0.0
 40
215.9
 41
1.2941176471
 42
50.0
 43
0.0
 44
0.0
 50
0.0
 51
0.0
 71
     0
 72
  2000
 73
     1
 74
     3
 75
     0
 76
     0
 77
     0
 78
     0
281
     0
 65
     1
110
0.0
120
0.0
130
0.0
111
1.0
121
0.0
131
0.0
112
0.0
122
1.0
132
0.0
 79
     0
146
0.0
  0
ENDTAB
  0
TABLE
  2
LTYPE
  5
5
330
0
100
AcDbSymbolTable
 70
     6
  0
LTYPE
  5
14
330
5
100
AcDbSymbolTableRecord
100
AcDbLinetypeTableRecord
  2
ByBlock
 70
     0
  3

 72
    65
 73
     0
 40
0.0
  0
LTYPE
  5
15
330
5
100
AcDbSymbolTableRecord
100
AcDbLinetypeTableRecord
  2
ByLayer
 70
     0
  3

 72
    65
 73
     0
 40
0.0
  0
LTYPE
  5
16
330
5
100
AcDbSymbolTableRecord
100
AcDbLinetypeTableRecord
  2
Continuous
 70
     0
  3
Solid line
 72
    65
 73
     0
 40
0.0
  0
LTYPE
  5
6E
330
5
100
AcDbSymbolTableRecord
100
AcDbLinetypeTableRecord
  2
HIDDEN
 70
     0
  3
Hidden __ __ __ __ __ __ __ __ __ __ __ __ __ __
 72
    65
 73
     2
 40
1.905
 49
1.27
 74
     0
 49
-0.635
 74
     0
  0
LTYPE
  5
6F
330
5
100
AcDbSymbolTableRecord
100
AcDbLinetypeTableRecord
  2
PHANTOM
 70
     0
  3
Phantom ______  __  __  ______  __  __  ______
 72
    65
 73
     6
 40
12.7
 49
6.35
 74
     0
 49
-1.27
 74
     0
 49
1.27
 74
     0
 49
-1.27
 74
     0
 49
1.27
 74
     0
 49
-1.27
 74
     0
  0
LTYPE
  5
70
330
5
100
AcDbSymbolTableRecord
100
AcDbLinetypeTableRecord
  2
CENTER
 70
     0
  3
Center ____ _ ____ _ ____ _ ____ _ ____ _ ____
 72
    65
 73
     4
 40
10.16
 49
6.35
 74
     0
 49
-1.27
 74
     0
 49
1.27
 74
     0
 49
-1.27
 74
     0
  0
LTYPE
  5
71
330
5
100
AcDbSymbolTableRecord
100
AcDbLinetypeTableRecord
  2
CENTERX2
 70
     0
  3
Center (2x) ________  __  ________  __  _____
 72
    65
 73
     4
 40
20.32
 49
12.7
 74
     0
 49
-2.54
 74
     0
 49
2.54
 74
     0
 49
-2.54
 74
     0
  0
LTYPE
  5
72
330
5
100
AcDbSymbolTableRecord
100
AcDbLinetypeTableRecord
  2
DOT2
 70
     0
  3
Dot (.5x) ........................................
 72
    65
 73
     2
 40
0.635
 49
0.0
 74
     0
 49
-0.635
 74
     0
  0
ENDTAB
  0
TABLE
  2
LAYER
  5
2
330
0
100
AcDbSymbolTable
 70
    17
  0
LAYER
  5
10
330
2
100
AcDbSymbolTableRecord
100
AcDbLayerTableRecord
  2
0
 70
     0
 62
     7
  6
Continuous
370
    -3
390
F
  0
LAYER
  5
73
330
2
100
AcDbSymbolTableRecord
100
AcDbLayerTableRecord
  2
FORMAT
 70
     0
 62
     7
  6
Continuous
370
    -3
390
F
  0
LAYER
  5
74
330
2
100
AcDbSymbolTableRecord
100
AcDbLayerTableRecord
  2
YARDIMCI_GEOMETRI
 70
     0
 62
    -6
  6
Continuous
290
     0
370
    -3
390
F
  0
LAYER
  5
75
330
2
100
AcDbSymbolTableRecord
100
AcDbLayerTableRecord
  2
SAYFA_CERCEVESI
 70
     0
 62
     7
  6
Continuous
370
    25
390
F
  0
LAYER
  5
76
330
2
100
AcDbSymbolTableRecord
100
AcDbLayerTableRecord
  2
ANTET
 70
     0
 62
     7
  6
Continuous
370
    -3
390
F
  0
LAYER
  5
77
330
2
100
AcDbSymbolTableRecord
100
AcDbLayerTableRecord
  2
OLCU
 70
     0
 62
   150
  6
Continuous
370
    -3
390
F
  0
LAYER
  5
78
330
2
100
AcDbSymbolTableRecord
100
AcDbLayerTableRecord
  2
METIN
 70
     0
 62
    96
  6
Continuous
370
    -3
390
F
  0
LAYER
  5
79
330
2
100
AcDbSymbolTableRecord
100
AcDbLayerTableRecord
  2
BALON
 70
     0
 62
     5
  6
Continuous
370
    -3
390
F
  0
LAYER
  5
7A
330
2
100
AcDbSymbolTableRecord
100
AcDbLayerTableRecord
  2
VURGU
 70
     0
 62
     7
  6
Continuous
370
    -3
390
F
  0
LAYER
  5
7B
330
2
100
AcDbSymbolTableRecord
100
AcDbLayerTableRecord
  2
SILIK
 70
     0
 62
     7
  6
Continuous
370
    -3
390
F
  0
LAYER
  5
7C
330
2
100
AcDbSymbolTableRecord
100
AcDbLayerTableRecord
  2
MODEL
 70
     0
 62
     7
  6
Continuous
370
    -3
390
F
  0
LAYER
  5
7D
330
2
100
AcDbSymbolTableRecord
100
AcDbLayerTableRecord
  2
DETAYLANDıRMA
 70
     0
 62
   190
  6
Continuous
370
    -3
390
F
  0
LAYER
  5
7E
330
2
100
AcDbSymbolTableRecord
100
AcDbLayerTableRecord
  2
TOLERANS
 70
     0
 62
   230
  6
Continuous
370
    -3
390
F
  0
LAYER
  5
7F
330
2
100
AcDbSymbolTableRecord
100
AcDbLayerTableRecord
  2
MERKEZ_CIZGILERI
 70
     0
 62
    30
  6
Continuous
370
    -3
390
F
  0
LAYER
  5
80
330
2
100
AcDbSymbolTableRecord
100
AcDbLayerTableRecord
  2
KESIT-DETAY_CIZGILERI
 70
     0
 62
     7
  6
Continuous
370
    -3
390
F
  0
LAYER
  5
81
330
2
100
AcDbSymbolTableRecord
100
AcDbLayerTableRecord
  2
\U+041E\U+0421\U+0415\U+0412\U+042B\U+0415
 70
     0
 62
     7
  6
Continuous
370
    -3
390
F
  0
LAYER
  5
82
330
2
100
AcDbSymbolTableRecord
100
AcDbLayerTableRecord
  2
\U+0412\U+041E\U+0414\U+042F\U+041D\U+042B\U+0415_\U+0417\U+041D\U+0410\U+041A\U+0418
 70
     0
 62
    11
  6
Continuous
370
    -3
390
F
  0
ENDTAB
  0
TABLE
  2
STYLE
  5
3
330
0
100
AcDbSymbolTable
 70
     1
  0
STYLE
  5
11
330
3
100
AcDbSymbolTableRecord
100
AcDbTextStyleTableRecord
  2
Standard
 70
     0
 40
0.0
 41
1.0
 50
0.0
 71
     0
 42
3.5
  3
txt
  4

  0
ENDTAB
  0
TABLE
  2
VIEW
  5
6
330
0
100
AcDbSymbolTable
 70
     0
  0
ENDTAB
  0
TABLE
  2
UCS
  5
7
330
0
100
AcDbSymbolTable
 70
     0
  0
ENDTAB
  0
TABLE
  2
APPID
  5
9
330
0
100
AcDbSymbolTable
 70
     1
  0
APPID
  5
12
330
9
100
AcDbSymbolTableRecord
100
AcDbRegAppTableRecord
  2
ACAD
 70
     0
  0
ENDTAB
  0
TABLE
  2
DIMSTYLE
  5
A
330
0
100
AcDbSymbolTable
 70
     1
100
AcDbDimStyleTable
  0
DIMSTYLE
105
27
330
A
100
AcDbSymbolTableRecord
100
AcDbDimStyleTableRecord
  2
ISO-25
 70
     0
 41
2.5
 42
0.625
 43
3.75
 44
1.25
 73
     0
 74
     0
 77
     1
 78
     8
140
2.5
141
2.5
143
0.0393700787
147
0.625
171
     3
172
     1
178
     0
271
     2
272
     2
274
     3
278
    44
283
     0
284
     8
340
11
  0
ENDTAB
  0
TABLE
  2
BLOCK_RECORD
  5
1
330
0
100
AcDbSymbolTable
 70
     2
  0
BLOCK_RECORD
  5
1F
330
1
100
AcDbSymbolTableRecord
100
AcDbBlockTableRecord
  2
*Model_Space
340
22
  0
BLOCK_RECORD
  5
1B
330
1
100
AcDbSymbolTableRecord
100
AcDbBlockTableRecord
  2
*Paper_Space
340
1E
  0
BLOCK_RECORD
  5
23
330
1
100
AcDbSymbolTableRecord
100
AcDbBlockTableRecord
  2
*Paper_Space0
340
26
  0
BLOCK_RECORD
  5
8E
330
1
100
AcDbSymbolTableRecord
100
AcDbBlockTableRecord
  2
SW_CENTERMARKSYMBOL_0
340
0
102
{BLKREFS
331
99
102
}
  0
ENDTAB
  0
ENDSEC
  0
SECTION
  2
BLOCKS
  0
BLOCK
  5
20
330
1F
100
AcDbEntity
  8
0
100
AcDbBlockBegin
  2
*Model_Space
 70
     0
 10
0.0
 20
0.0
 30
0.0
  3
*Model_Space
  1

  0
ENDBLK
  5
21
330
1F
100
AcDbEntity
  8
0
100
AcDbBlockEnd
  0
BLOCK
  5
1C
330
1B
100
AcDbEntity
 67
     1
  8
0
100
AcDbBlockBegin
  2
*Paper_Space
 70
     0
 10
0.0
 20
0.0
 30
0.0
  3
*Paper_Space
  1

  0
ENDBLK
  5
1D
330
1B
100
AcDbEntity
 67
     1
  8
0
100
AcDbBlockEnd
  0
BLOCK
  5
24
330
23
100
AcDbEntity
  8
0
100
AcDbBlockBegin
  2
*Paper_Space0
 70
     0
 10
0.0
 20
0.0
 30
0.0
  3
*Paper_Space0
  1

  0
ENDBLK
  5
25
330
23
100
AcDbEntity
  8
0
100
AcDbBlockEnd
  0
BLOCK
  5
8F
330
8E
100
AcDbEntity
  8
0
100
AcDbBlockBegin
  2
SW_CENTERMARKSYMBOL_0
 70
     0
 10
0.0
 20
0.0
 30
0.0
  3
SW_CENTERMARKSYMBOL_0
  1

  0
LINE
  5
91
330
8E
100
AcDbEntity
  8
FORMAT
 62
     0
100
AcDbLine
 10
0.0
 20
0.0
 30
0.0
 11
0.0
 21
2.5
 31
0.0
  0
LINE
  5
92
330
8E
100
AcDbEntity
  8
FORMAT
 62
     0
100
AcDbLine
 10
0.0
 20
0.0
 30
0.0
 11
-2.5
 21
0.0
 31
0.0
  0
LINE
  5
93
330
8E
100
AcDbEntity
  8
FORMAT
 62
     0
100
AcDbLine
 10
0.0
 20
0.0
 30
0.0
 11
0.0
 21
-2.5
 31
0.0
  0
LINE
  5
94
330
8E
100
AcDbEntity
  8
FORMAT
 62
     0
100
AcDbLine
 10
0.0
 20
0.0
 30
0.0
 11
2.5
 21
0.0
 31
0.0
  0
LINE
  5
95
330
8E
100
AcDbEntity
  8
FORMAT
 62
     0
100
AcDbLine
 10
0.0
 20
5.0
 30
0.0
 11
0.0
 21
15.0
 31
0.0
  0
LINE
  5
96
330
8E
100
AcDbEntity
  8
FORMAT
 62
     0
100
AcDbLine
 10
-5.0
 20
0.0
 30
0.0
 11
-15.0
 21
0.0
 31
0.0
  0
LINE
  5
97
330
8E
100
AcDbEntity
  8
FORMAT
 62
     0
100
AcDbLine
 10
0.0
 20
-5.0
 30
0.0
 11
0.0
 21
-15.0
 31
0.0
  0
LINE
  5
98
330
8E
100
AcDbEntity
  8
FORMAT
 62
     0
100
AcDbLine
 10
5.0
 20
0.0
 30
0.0
 11
15.0
 21
0.0
 31
0.0
  0
ENDBLK
  5
90
330
8E
100
AcDbEntity
  8
0
100
AcDbBlockEnd
  0
ENDSEC
  0
SECTION
  2
ENTITIES
  0
CIRCLE
  5
83
330
1F
100
AcDbEntity
  8
0
  6
Continuous
 62
     7
370
    25
100
AcDbCircle
 10
139.8323425481
 20
108.7440552885
 30
0.0
 40
9.500000000000028
  0
CIRCLE
  5
84
330
1F
100
AcDbEntity
  8
0
  6
Continuous
 62
     7
370
    25
100
AcDbCircle
 10
139.8323425481
 20
108.7440552885
 30
0.0
 40
12.50000000000001
  0
CIRCLE
  5
85
330
1F
100
AcDbEntity
  8
0
  6
Continuous
 62
     7
370
    25
100
AcDbCircle
 10
139.8323425481
 20
108.7440552885
 30
0.0
 40
8.000000000000028
  0
CIRCLE
  5
86
330
1F
100
AcDbEntity
  8
0
  6
Continuous
 62
     7
370
    25
100
AcDbCircle
 10
139.8323425481
 20
108.7440552885
 30
0.0
 40
15.00000000000001
  0
CIRCLE
  5
87
330
1F
100
AcDbEntity
  8
0
  6
Continuous
 62
     7
370
    25
100
AcDbCircle
 10
139.8323425481
 20
108.7440552885
 30
0.0
 40
15.50000000000003
  0
LINE
  5
88
330
1F
100
AcDbEntity
  8
0
  6
Continuous
 62
     7
370
    25
100
AcDbLine
 10
122.8323425481
 20
118.5590098647
 30
0.0
 11
122.8323425481
 21
98.9291007122
 31
0.0
  0
LINE
  5
89
330
1F
100
AcDbEntity
  8
0
  6
Continuous
 62
     7
370
    25
100
AcDbLine
 10
139.8323425481
 20
128.3739644409
 30
0.0
 11
122.8323425481
 21
118.5590098647
 31
0.0
  0
LINE
  5
8A
330
1F
100
AcDbEntity
  8
0
  6
Continuous
 62
     7
370
    25
100
AcDbLine
 10
156.8323425481
 20
98.9291007122
 30
0.0
 11
156.8323425481
 21
118.5590098647
 31
0.0
  0
LINE
  5
8B
330
1F
100
AcDbEntity
  8
0
  6
Continuous
 62
     7
370
    25
100
AcDbLine
 10
156.8323425481
 20
118.5590098647
 30
0.0
 11
139.8323425481
 21
128.3739644409
 31
0.0
  0
LINE
  5
8C
330
1F
100
AcDbEntity
  8
0
  6
Continuous
 62
     7
370
    25
100
AcDbLine
 10
139.8323425481
 20
89.114146136
 30
0.0
 11
156.8323425481
 21
98.9291007122
 31
0.0
  0
LINE
  5
8D
330
1F
100
AcDbEntity
  8
0
  6
Continuous
 62
     7
370
    25
100
AcDbLine
 10
122.8323425481
 20
98.9291007122
 30
0.0
 11
139.8323425481
 21
89.114146136
 31
0.0
  0
INSERT
  5
99
330
1F
100
AcDbEntity
  8
FORMAT
 62
     7
100
AcDbBlockReference
  2
SW_CENTERMARKSYMBOL_0
 10
139.8323425481
 20
108.7440552885
 30
0.0
  0
LINE
  5
9A
330
1F
100
AcDbEntity
  8
0
  6
Continuous
 62
     7
370
    25
100
AcDbLine
 10
155.3323425481
 20
150.8769976914
 30
0.0
 11
155.3323425481
 21
164.3769976914
 31
0.0
  0
LINE
  5
9B
330
1F
100
AcDbEntity
  8
0
  6
Continuous
 62
     7
370
    25
100
AcDbLine
 10
124.3323425481
 20
164.3769976914
 30
0.0
 11
124.3323425481
 21
150.8769976914
 31
0.0
  0
ARC
  5
9C
330
1F
100
AcDbEntity
  8
0
  6
Continuous
 62
     7
370
    25
100
AcDbCircle
 10
154.8323425481
 20
164.3769976914
 30
0.0
 40
0.5
100
AcDbArc
 50
0.0
 51
90.0
  0
ARC
  5
9D
330
1F
100
AcDbEntity
  8
0
  6
Continuous
 62
     7
370
    25
100
AcDbCircle
 10
124.8323425481
 20
164.3769976914
 30
0.0
 40
0.5000000000000142
100
AcDbArc
 50
90.0
 51
180.0
  0
LINE
  5
9E
330
1F
100
AcDbEntity
  8
0
  6
Continuous
 62
     7
370
    25
100
AcDbLine
 10
126.6123425481
 20
132.3769976914
 30
0.0
 11
128.3443933556
 21
131.3769976914
 31
0.0
  0
LINE
  5
9F
330
1F
100
AcDbEntity
  8
0
  6
Continuous
 62
     7
370
    25
100
AcDbLine
 10
151.3202917405
 20
131.3769976914
 30
0.0
 11
153.0523425481
 21
132.3769976914
 31
0.0
  0
LINE
  5
A0
330
1F
100
AcDbEntity
  8
0
  6
Continuous
 62
     7
370
    25
100
AcDbLine
 10
153.0523425481
 20
132.3769976914
 30
0.0
 11
151.3202917405
 21
133.3769976914
 31
0.0
  0
LINE
  5
A1
330
1F
100
AcDbEntity
  8
0
  6
Continuous
 62
     7
370
    25
100
AcDbLine
 10
128.3443933556
 20
133.3769976914
 30
0.0
 11
126.6123425481
 21
132.3769976914
 31
0.0
  0
LINE
  5
A2
330
1F
100
AcDbEntity
  8
0
  6
Continuous
 62
     7
370
    25
100
AcDbLine
 10
126.6123425481
 20
134.3769976914
 30
0.0
 11
128.3443933556
 21
133.3769976914
 31
0.0
  0
LINE
  5
A3
330
1F
100
AcDbEntity
  8
0
  6
Continuous
 62
     7
370
    25
100
AcDbLine
 10
151.3202917405
 20
133.3769976914
 30
0.0
 11
153.0523425481
 21
134.3769976914
 31
0.0
  0
LINE
  5
A4
330
1F
100
AcDbEntity
  8
0
  6
Continuous
 62
     7
370
    25
100
AcDbLine
 10
153.0523425481
 20
134.3769976914
 30
0.0
 11
151.3202917405
 21
135.3769976914
 31
0.0
  0
LINE
  5
A5
330
1F
100
AcDbEntity
  8
0
  6
Continuous
 62
     7
370
    25
100
AcDbLine
 10
128.3443933556
 20
135.3769976914
 30
0.0
 11
126.6123425481
 21
134.3769976914
 31
0.0
  0
LINE
  5
A6
330
1F
100
AcDbEntity
  8
0
  6
Continuous
 62
     7
370
    25
100
AcDbLine
 10
126.6123425481
 20
136.3769976914
 30
0.0
 11
128.3443933556
 21
135.3769976914
 31
0.0
  0
LINE
  5
A7
330
1F
100
AcDbEntity
  8
0
  6
Continuous
 62
     7
370
    25
100
AcDbLine
 10
151.3202917405
 20
135.3769976914
 30
0.0
 11
153.0523425481
 21
136.3769976914
 31
0.0
  0
LINE
  5
A8
330
1F
100
AcDbEntity
  8
0
  6
Continuous
 62
     7
370
    25
100
AcDbLine
 10
153.0523425481
 20
136.3769976914
 30
0.0
 11
151.3202917405
 21
137.3769976914
 31
0.0
  0
LINE
  5
A9
330
1F
100
AcDbEntity
  8
0
  6
Continuous
 62
     7
370
    25
100
AcDbLine
 10
128.3443933556
 20
137.3769976914
 30
0.0
 11
126.6123425481
 21
136.3769976914
 31
0.0
  0
LINE
  5
AA
330
1F
100
AcDbEntity
  8
0
  6
Continuous
 62
     7
370
    25
100
AcDbLine
 10
126.6123425481
 20
138.3769976914
 30
0.0
 11
128.3443933556
 21
137.3769976914
 31
0.0
  0
LINE
  5
AB
330
1F
100
AcDbEntity
  8
0
  6
Continuous
 62
     7
370
    25
100
AcDbLine
 10
151.3202917405
 20
137.3769976914
 30
0.0
 11
153.0523425481
 21
138.3769976914
 31
0.0
  0
LINE
  5
AC
330
1F
100
AcDbEntity
  8
0
  6
Continuous
 62
     7
370
    25
100
AcDbLine
 10
153.0523425481
 20
138.3769976914
 30
0.0
 11
153.0523425481
 21
144.8769976914
 31
0.0
  0
LINE
  5
AD
330
1F
100
AcDbEntity
  8
0
  6
Continuous
 62
     7
370
    25
100
AcDbLine
 10
126.6123425481
 20
144.8769976914
 30
0.0
 11
126.6123425481
 21
138.3769976914
 31
0.0
  0
LINE
  5
AE
330
1F
100
AcDbEntity
  8
0
  6
Continuous
 62
     7
370
    25
100
AcDbLine
 10
152.3323425481
 20
164.8769976914
 30
0.0
 11
152.3323425481
 21
211.3769976914
 31
0.0
  0
LINE
  5
AF
330
1F
100
AcDbEntity
  8
0
  6
Continuous
 62
     7
370
    25
100
AcDbLine
 10
127.3323425481
 20
211.3769976914
 30
0.0
 11
127.3323425481
 21
164.8769976914
 31
0.0
  0
LINE
  5
B0
330
1F
100
AcDbEntity
  8
0
  6
Continuous
 62
     7
370
    25
100
AcDbLine
 10
139.8323425481
 20
150.8769976914
 30
0.0
 11
139.8323425481
 21
144.8769976914
 31
0.0
  0
LINE
  5
B1
330
1F
100
AcDbEntity
  8
0
  6
Continuous
 62
     7
370
    25
100
AcDbLine
 10
139.8323425481
 20
150.8769976914
 30
0.0
 11
156.8323425481
 21
150.8769976914
 31
0.0
  0
LINE
  5
B2
330
1F
100
AcDbEntity
  8
0
  6
Continuous
 62
     7
370
    25
100
AcDbLine
 10
156.8323425481
 20
150.8769976914
 30
0.0
 11
156.8323425481
 21
144.8769976914
 31
0.0
  0
LINE
  5
B3
330
1F
100
AcDbEntity
  8
0
  6
Continuous
 62
     7
370
    25
100
AcDbLine
 10
139.8323425481
 20
144.8769976914
 30
0.0
 11
156.8323425481
 21
144.8769976914
 31
0.0
  0
LINE
  5
B4
330
1F
100
AcDbEntity
  8
0
  6
Continuous
 62
     7
370
    25
100
AcDbLine
 10
122.8323425481
 20
150.8769976914
 30
0.0
 11
122.8323425481
 21
144.8769976914
 31
0.0
  0
LINE
  5
B5
330
1F
100
AcDbEntity
  8
0
  6
Continuous
 62
     7
370
    25
100
AcDbLine
 10
122.8323425481
 20
150.8769976914
 30
0.0
 11
139.8323425481
 21
150.8769976914
 31
0.0
  0
LINE
  5
B6
330
1F
100
AcDbEntity
  8
0
  6
Continuous
 62
     7
370
    25
100
AcDbLine
 10
122.8323425481
 20
144.8769976914
 30
0.0
 11
139.8323425481
 21
144.8769976914
 31
0.0
  0
LINE
  5
B7
330
1F
100
AcDbEntity
  8
0
  6
Continuous
 62
     7
370
    25
100
AcDbLine
 10
154.8323425458
 20
164.8769976914
 30
0.0
 11
124.8323425481
 21
164.8769976914
 31
0.0
  0
LINE
  5
B8
330
1F
100
AcDbEntity
  8
0
  6
Continuous
 62
     7
370
    25
100
AcDbLine
 10
153.0523425481
 20
132.3769976914
 30
0.0
 11
126.6123425481
 21
132.3769976914
 31
0.0
  0
LINE
  5
B9
330
1F
100
AcDbEntity
  8
0
  6
Continuous
 62
     7
370
    25
100
AcDbLine
 10
151.3202917405
 20
131.3769976914
 30
0.0
 11
128.3443933556
 21
131.3769976914
 31
0.0
  0
LINE
  5
BA
330
1F
100
AcDbEntity
  8
0
  6
Continuous
 62
     7
370
    25
100
AcDbLine
 10
151.3202917405
 20
133.3769976914
 30
0.0
 11
128.3443933556
 21
133.3769976914
 31
0.0
  0
LINE
  5
BB
330
1F
100
AcDbEntity
  8
0
  6
Continuous
 62
     7
370
    25
100
AcDbLine
 10
153.0523425481
 20
134.3769976914
 30
0.0
 11
126.6123425481
 21
134.3769976914
 31
0.0
  0
LINE
  5
BC
330
1F
100
AcDbEntity
  8
0
  6
Continuous
 62
     7
370
    25
100
AcDbLine
 10
151.3202917405
 20
135.3769976914
 30
0.0
 11
128.3443933556
 21
135.3769976914
 31
0.0
  0
LINE
  5
BD
330
1F
100
AcDbEntity
  8
0
  6
Continuous
 62
     7
370
    25
100
AcDbLine
 10
153.0523425481
 20
136.3769976914
 30
0.0
 11
126.6123425481
 21
136.3769976914
 31
0.0
  0
LINE
  5
BE
330
1F
100
AcDbEntity
  8
0
  6
Continuous
 62
     7
370
    25
100
AcDbLine
 10
151.3202917405
 20
137.3769976914
 30
0.0
 11
128.3443933556
 21
137.3769976914
 31
0.0
  0
LINE
  5
BF
330
1F
100
AcDbEntity
  8
0
  6
Continuous
 62
     7
370
    25
100
AcDbLine
 10
153.0523425481
 20
138.3769976914
 30
0.0
 11
126.6123425481
 21
138.3769976914
 31
0.0
  0
LINE
  5
C0
330
1F
100
AcDbEntity
  8
0
  6
Continuous
 62
     7
370
    25
100
AcDbLine
 10
152.3323425481
 20
211.3769976914
 30
0.0
 11
127.3323425481
 21
211.3769976914
 31
0.0
  0
LINE
  5
C1
330
1F
100
AcDbEntity
  8
0
  6
Continuous
 62
     1
370
    25
100
AcDbLine
 10
155.3323425481
 20
164.3769976914
 30
0.0
 11
124.3323425481
 21
164.3769976914
 31
0.0
  0
LINE
  5
C2
330
1F
100
AcDbEntity
  8
0
  6
Continuous
 62
     7
370
    25
100
AcDbLine
 10
198.7264968168
 20
93.2440552885
 30
0.0
 11
212.2264968168
 21
93.2440552885
 31
0.0
  0
LINE
  5
C3
330
1F
100
AcDbEntity
  8
0
  6
Continuous
 62
     7
370
    25
100
AcDbLine
 10
212.2264968168
 20
124.2440552885
 30
0.0
 11
198.7264968168
 21
124.2440552885
 31
0.0
  0
ARC
  5
C4
330
1F
100
AcDbEntity
  8
0
  6
Continuous
 62
     7
370
    25
100
AcDbCircle
 10
212.2264968168
 20
93.7440552885
 30
0.0
 40
0.5
100
AcDbArc
 50
270.0
 51
0.0
  0
ARC
  5
C5
330
1F
100
AcDbEntity
  8
0
  6
Continuous
 62
     7
370
    25
100
AcDbCircle
 10
212.2264968168
 20
123.7440552885
 30
0.0
 40
0.5
100
AcDbArc
 50
0.0
 51
90.0
  0
LINE
  5
C6
330
1F
100
AcDbEntity
  8
0
  6
Continuous
 62
     7
370
    25
100
AcDbLine
 10
180.2264968168
 20
121.9640552885
 30
0.0
 11
179.2264968168
 21
120.2320044809
 31
0.0
  0
LINE
  5
C7
330
1F
100
AcDbEntity
  8
0
  6
Continuous
 62
     7
370
    25
100
AcDbLine
 10
179.2264968168
 20
97.256106096
 30
0.0
 11
180.2264968168
 21
95.5240552885
 31
0.0
  0
LINE
  5
C8
330
1F
100
AcDbEntity
  8
0
  6
Continuous
 62
     7
370
    25
100
AcDbLine
 10
180.2264968168
 20
95.5240552885
 30
0.0
 11
181.2264968168
 21
97.256106096
 31
0.0
  0
LINE
  5
C9
330
1F
100
AcDbEntity
  8
0
  6
Continuous
 62
     7
370
    25
100
AcDbLine
 10
181.2264968168
 20
120.2320044809
 30
0.0
 11
180.2264968168
 21
121.9640552885
 31
0.0
  0
LINE
  5
CA
330
1F
100
AcDbEntity
  8
0
  6
Continuous
 62
     7
370
    25
100
AcDbLine
 10
182.2264968168
 20
121.9640552885
 30
0.0
 11
181.2264968168
 21
120.2320044809
 31
0.0
  0
LINE
  5
CB
330
1F
100
AcDbEntity
  8
0
  6
Continuous
 62
     7
370
    25
100
AcDbLine
 10
181.2264968168
 20
97.256106096
 30
0.0
 11
182.2264968168
 21
95.5240552885
 31
0.0
  0
LINE
  5
CC
330
1F
100
AcDbEntity
  8
0
  6
Continuous
 62
     7
370
    25
100
AcDbLine
 10
182.2264968168
 20
95.5240552885
 30
0.0
 11
183.2264968168
 21
97.256106096
 31
0.0
  0
LINE
  5
CD
330
1F
100
AcDbEntity
  8
0
  6
Continuous
 62
     7
370
    25
100
AcDbLine
 10
183.2264968168
 20
120.2320044809
 30
0.0
 11
182.2264968168
 21
121.9640552885
 31
0.0
  0
LINE
  5
CE
330
1F
100
AcDbEntity
  8
0
  6
Continuous
 62
     7
370
    25
100
AcDbLine
 10
184.2264968168
 20
121.9640552885
 30
0.0
 11
183.2264968168
 21
120.2320044809
 31
0.0
  0
LINE
  5
CF
330
1F
100
AcDbEntity
  8
0
  6
Continuous
 62
     7
370
    25
100
AcDbLine
 10
183.2264968168
 20
97.256106096
 30
0.0
 11
184.2264968168
 21
95.5240552885
 31
0.0
  0
LINE
  5
D0
330
1F
100
AcDbEntity
  8
0
  6
Continuous
 62
     7
370
    25
100
AcDbLine
 10
184.2264968168
 20
95.5240552885
 30
0.0
 11
185.2264968168
 21
97.256106096
 31
0.0
  0
LINE
  5
D1
330
1F
100
AcDbEntity
  8
0
  6
Continuous
 62
     7
370
    25
100
AcDbLine
 10
185.2264968168
 20
120.2320044809
 30
0.0
 11
184.2264968168
 21
121.9640552885
 31
0.0
  0
LINE
  5
D2
330
1F
100
AcDbEntity
  8
0
  6
Continuous
 62
     7
370
    25
100
AcDbLine
 10
186.2264968168
 20
121.9640552885
 30
0.0
 11
185.2264968168
 21
120.2320044809
 31
0.0
  0
LINE
  5
D3
330
1F
100
AcDbEntity
  8
0
  6
Continuous
 62
     7
370
    25
100
AcDbLine
 10
185.2264968168
 20
97.256106096
 30
0.0
 11
186.2264968168
 21
95.5240552885
 31
0.0
  0
LINE
  5
D4
330
1F
100
AcDbEntity
  8
0
  6
Continuous
 62
     7
370
    25
100
AcDbLine
 10
186.2264968168
 20
95.5240552885
 30
0.0
 11
192.7264968168
 21
95.5240552885
 31
0.0
  0
LINE
  5
D5
330
1F
100
AcDbEntity
  8
0
  6
Continuous
 62
     7
370
    25
100
AcDbLine
 10
192.7264968168
 20
121.9640552885
 30
0.0
 11
186.2264968168
 21
121.9640552885
 31
0.0
  0
LINE
  5
D6
330
1F
100
AcDbEntity
  8
0
  6
Continuous
 62
     7
370
    25
100
AcDbLine
 10
212.7264968168
 20
96.2440552885
 30
0.0
 11
259.2264968168
 21
96.2440552885
 31
0.0
  0
LINE
  5
D7
330
1F
100
AcDbEntity
  8
0
  6
Continuous
 62
     7
370
    25
100
AcDbLine
 10
259.2264968168
 20
121.2440552885
 30
0.0
 11
212.7264968168
 21
121.2440552885
 31
0.0
  0
LINE
  5
D8
330
1F
100
AcDbEntity
  8
0
  6
Continuous
 62
     7
370
    25
100
AcDbLine
 10
198.7264968168
 20
128.3739644409
 30
0.0
 11
192.7264968168
 21
128.3739644409
 31
0.0
  0
LINE
  5
D9
330
1F
100
AcDbEntity
  8
0
  6
Continuous
 62
     7
370
    25
100
AcDbLine
 10
198.7264968168
 20
128.3739644409
 30
0.0
 11
198.7264968168
 21
118.5590098647
 31
0.0
  0
LINE
  5
DA
330
1F
100
AcDbEntity
  8
0
  6
Continuous
 62
     7
370
    25
100
AcDbLine
 10
198.7264968168
 20
118.5590098647
 30
0.0
 11
192.7264968168
 21
118.5590098647
 31
0.0
  0
LINE
  5
DB
330
1F
100
AcDbEntity
  8
0
  6
Continuous
 62
     7
370
    25
100
AcDbLine
 10
192.7264968168
 20
128.3739644409
 30
0.0
 11
192.7264968168
 21
118.5590098647
 31
0.0
  0
LINE
  5
DC
330
1F
100
AcDbEntity
  8
0
  6
Continuous
 62
     7
370
    25
100
AcDbLine
 10
198.7264968168
 20
118.5590098647
 30
0.0
 11
198.7264968168
 21
98.9291007122
 31
0.0
  0
LINE
  5
DD
330
1F
100
AcDbEntity
  8
0
  6
Continuous
 62
     7
370
    25
100
AcDbLine
 10
198.7264968168
 20
98.9291007122
 30
0.0
 11
192.7264968168
 21
98.9291007122
 31
0.0
  0
LINE
  5
DE
330
1F
100
AcDbEntity
  8
0
  6
Continuous
 62
     7
370
    25
100
AcDbLine
 10
192.7264968168
 20
118.5590098647
 30
0.0
 11
192.7264968168
 21
98.9291007122
 31
0.0
  0
LINE
  5
DF
330
1F
100
AcDbEntity
  8
0
  6
Continuous
 62
     7
370
    25
100
AcDbLine
 10
198.7264968168
 20
98.9291007122
 30
0.0
 11
198.7264968168
 21
89.114146136
 31
0.0
  0
LINE
  5
E0
330
1F
100
AcDbEntity
  8
0
  6
Continuous
 62
     7
370
    25
100
AcDbLine
 10
198.7264968168
 20
89.114146136
 30
0.0
 11
192.7264968168
 21
89.114146136
 31
0.0
  0
LINE
  5
E1
330
1F
100
AcDbEntity
  8
0
  6
Continuous
 62
     7
370
    25
100
AcDbLine
 10
192.7264968168
 20
98.9291007122
 30
0.0
 11
192.7264968168
 21
89.114146136
 31
0.0
  0
LINE
  5
E2
330
1F
100
AcDbEntity
  8
0
  6
Continuous
 62
     7
370
    25
100
AcDbLine
 10
212.7264968168
 20
108.7440552885
 30
0.0
 11
212.7264968168
 21
123.7440552885
 31
0.0
  0
LINE
  5
E3
330
1F
100
AcDbEntity
  8
0
  6
Continuous
 62
     7
370
    25
100
AcDbLine
 10
212.7264968168
 20
93.7440552885
 30
0.0
 11
212.7264968168
 21
108.7440552885
 31
0.0
  0
LINE
  5
E4
330
1F
100
AcDbEntity
  8
0
  6
Continuous
 62
     7
370
    25
100
AcDbLine
 10
180.2264968168
 20
108.7440552885
 30
0.0
 11
180.2264968168
 21
121.9640552885
 31
0.0
  0
LINE
  5
E5
330
1F
100
AcDbEntity
  8
0
  6
Continuous
 62
     7
370
    25
100
AcDbLine
 10
180.2264968168
 20
95.5240552885
 30
0.0
 11
180.2264968168
 21
108.7440552885
 31
0.0
  0
LINE
  5
E6
330
1F
100
AcDbEntity
  8
0
  6
Continuous
 62
     7
370
    25
100
AcDbLine
 10
179.2264968168
 20
108.7440552885
 30
0.0
 11
179.2264968168
 21
120.2320044809
 31
0.0
  0
LINE
  5
E7
330
1F
100
AcDbEntity
  8
0
  6
Continuous
 62
     7
370
    25
100
AcDbLine
 10
179.2264968168
 20
97.256106096
 30
0.0
 11
179.2264968168
 21
108.7440552885
 31
0.0
  0
LINE
  5
E8
330
1F
100
AcDbEntity
  8
0
  6
Continuous
 62
     7
370
    25
100
AcDbLine
 10
181.2264968168
 20
108.7440552885
 30
0.0
 11
181.2264968168
 21
120.2320044809
 31
0.0
  0
LINE
  5
E9
330
1F
100
AcDbEntity
  8
0
  6
Continuous
 62
     7
370
    25
100
AcDbLine
 10
181.2264968168
 20
97.256106096
 30
0.0
 11
181.2264968168
 21
108.7440552885
 31
0.0
  0
LINE
  5
EA
330
1F
100
AcDbEntity
  8
0
  6
Continuous
 62
     7
370
    25
100
AcDbLine
 10
182.2264968168
 20
108.7440552885
 30
0.0
 11
182.2264968168
 21
121.9640552885
 31
0.0
  0
LINE
  5
EB
330
1F
100
AcDbEntity
  8
0
  6
Continuous
 62
     7
370
    25
100
AcDbLine
 10
182.2264968168
 20
95.5240552885
 30
0.0
 11
182.2264968168
 21
108.7440552885
 31
0.0
  0
LINE
  5
EC
330
1F
100
AcDbEntity
  8
0
  6
Continuous
 62
     7
370
    25
100
AcDbLine
 10
183.2264968168
 20
108.7440552885
 30
0.0
 11
183.2264968168
 21
120.2320044809
 31
0.0
  0
LINE
  5
ED
330
1F
100
AcDbEntity
  8
0
  6
Continuous
 62
     7
370
    25
100
AcDbLine
 10
183.2264968168
 20
97.256106096
 30
0.0
 11
183.2264968168
 21
108.7440552885
 31
0.0
  0
LINE
  5
EE
330
1F
100
AcDbEntity
  8
0
  6
Continuous
 62
     7
370
    25
100
AcDbLine
 10
184.2264968168
 20
108.7440552885
 30
0.0
 11
184.2264968168
 21
121.9640552885
 31
0.0
  0
LINE
  5
EF
330
1F
100
AcDbEntity
  8
0
  6
Continuous
 62
     7
370
    25
100
AcDbLine
 10
184.2264968168
 20
95.5240552885
 30
0.0
 11
184.2264968168
 21
108.7440552885
 31
0.0
  0
LINE
  5
F0
330
1F
100
AcDbEntity
  8
0
  6
Continuous
 62
     7
370
    25
100
AcDbLine
 10
185.2264968168
 20
108.7440552885
 30
0.0
 11
185.2264968168
 21
120.2320044809
 31
0.0
  0
LINE
  5
F1
330
1F
100
AcDbEntity
  8
0
  6
Continuous
 62
     7
370
    25
100
AcDbLine
 10
185.2264968168
 20
97.256106096
 30
0.0
 11
185.2264968168
 21
108.7440552885
 31
0.0
  0
LINE
  5
F2
330
1F
100
AcDbEntity
  8
0
  6
Continuous
 62
     7
370
    25
100
AcDbLine
 10
186.2264968168
 20
108.7440552885
 30
0.0
 11
186.2264968168
 21
121.9640552885
 31
0.0
  0
LINE
  5
F3
330
1F
100
AcDbEntity
  8
0
  6
Continuous
 62
     7
370
    25
100
AcDbLine
 10
186.2264968168
 20
95.5240552885
 30
0.0
 11
186.2264968168
 21
108.7440552885
 31
0.0
  0
LINE
  5
F4
330
1F
100
AcDbEntity
  8
0
  6
Continuous
 62
     7
370
    25
100
AcDbLine
 10
259.2264968168
 20
108.7440552885
 30
0.0
 11
259.2264968168
 21
121.2440552885
 31
0.0
  0
LINE
  5
F5
330
1F
100
AcDbEntity
  8
0
  6
Continuous
 62
     7
370
    25
100
AcDbLine
 10
259.2264968168
 20
96.2440552885
 30
0.0
 11
259.2264968168
 21
108.7440552885
 31
0.0
  0
LINE
  5
F6
330
1F
100
AcDbEntity
  8
0
  6
Continuous
 62
     1
370
    25
100
AcDbLine
 10
212.2264968168
 20
108.7440552885
 30
0.0
 11
212.2264968168
 21
124.2440552885
 31
0.0
  0
LINE
  5
F7
330
1F
100
AcDbEntity
  8
0
  6
Continuous
 62
     1
370
    25
100
AcDbLine
 10
212.2264968168
 20
93.2440552885
 30
0.0
 11
212.2264968168
 21
108.7440552885
 31
0.0
  0
LINE
  5
F8
330
1F
100
AcDbEntity
  8
0
  6
Continuous
 62
     7
370
    25
100
AcDbLine
 10
80.346783134
 20
124.2440552885
 30
0.0
 11
66.846783134
 21
124.2440552885
 31
0.0
  0
LINE
  5
F9
330
1F
100
AcDbEntity
  8
0
  6
Continuous
 62
     7
370
    25
100
AcDbLine
 10
66.846783134
 20
93.2440552885
 30
0.0
 11
80.346783134
 21
93.2440552885
 31
0.0
  0
ARC
  5
FA
330
1F
100
AcDbEntity
  8
0
  6
Continuous
 62
     7
370
    25
100
AcDbCircle
 10
66.846783134
 20
123.7440552885
 30
0.0
 40
0.5
100
AcDbArc
 50
90.0
 51
180.0
  0
ARC
  5
FB
330
1F
100
AcDbEntity
  8
0
  6
Continuous
 62
     7
370
    25
100
AcDbCircle
 10
66.846783134
 20
93.7440552885
 30
0.0
 40
0.5
100
AcDbArc
 50
180.0
 51
270.0
  0
LINE
  5
FC
330
1F
100
AcDbEntity
  8
0
  6
Continuous
 62
     7
370
    25
100
AcDbLine
 10
98.846783134
 20
95.5240552885
 30
0.0
 11
99.846783134
 21
97.256106096
 31
0.0
  0
LINE
  5
FD
330
1F
100
AcDbEntity
  8
0
  6
Continuous
 62
     7
370
    25
100
AcDbLine
 10
99.846783134
 20
120.2320044809
 30
0.0
 11
98.846783134
 21
121.9640552885
 31
0.0
  0
LINE
  5
FE
330
1F
100
AcDbEntity
  8
0
  6
Continuous
 62
     7
370
    25
100
AcDbLine
 10
98.846783134
 20
121.9640552885
 30
0.0
 11
97.846783134
 21
120.2320044809
 31
0.0
  0
LINE
  5
FF
330
1F
100
AcDbEntity
  8
0
  6
Continuous
 62
     7
370
    25
100
AcDbLine
 10
97.846783134
 20
97.256106096
 30
0.0
 11
98.846783134
 21
95.5240552885
 31
0.0
  0
LINE
  5
100
330
1F
100
AcDbEntity
  8
0
  6
Continuous
 62
     7
370
    25
100
AcDbLine
 10
96.846783134
 20
95.5240552885
 30
0.0
 11
97.846783134
 21
97.256106096
 31
0.0
  0
LINE
  5
101
330
1F
100
AcDbEntity
  8
0
  6
Continuous
 62
     7
370
    25
100
AcDbLine
 10
97.846783134
 20
120.2320044809
 30
0.0
 11
96.846783134
 21
121.9640552885
 31
0.0
  0
LINE
  5
102
330
1F
100
AcDbEntity
  8
0
  6
Continuous
 62
     7
370
    25
100
AcDbLine
 10
96.846783134
 20
121.9640552885
 30
0.0
 11
95.846783134
 21
120.2320044809
 31
0.0
  0
LINE
  5
103
330
1F
100
AcDbEntity
  8
0
  6
Continuous
 62
     7
370
    25
100
AcDbLine
 10
95.846783134
 20
97.256106096
 30
0.0
 11
96.846783134
 21
95.5240552885
 31
0.0
  0
LINE
  5
104
330
1F
100
AcDbEntity
  8
0
  6
Continuous
 62
     7
370
    25
100
AcDbLine
 10
94.846783134
 20
95.5240552885
 30
0.0
 11
95.846783134
 21
97.256106096
 31
0.0
  0
LINE
  5
105
330
1F
100
AcDbEntity
  8
0
  6
Continuous
 62
     7
370
    25
100
AcDbLine
 10
95.846783134
 20
120.2320044809
 30
0.0
 11
94.846783134
 21
121.9640552885
 31
0.0
  0
LINE
  5
106
330
1F
100
AcDbEntity
  8
0
  6
Continuous
 62
     7
370
    25
100
AcDbLine
 10
94.846783134
 20
121.9640552885
 30
0.0
 11
93.846783134
 21
120.2320044809
 31
0.0
  0
LINE
  5
107
330
1F
100
AcDbEntity
  8
0
  6
Continuous
 62
     7
370
    25
100
AcDbLine
 10
93.846783134
 20
97.256106096
 30
0.0
 11
94.846783134
 21
95.5240552885
 31
0.0
  0
LINE
  5
108
330
1F
100
AcDbEntity
  8
0
  6
Continuous
 62
     7
370
    25
100
AcDbLine
 10
92.846783134
 20
95.5240552885
 30
0.0
 11
93.846783134
 21
97.256106096
 31
0.0
  0
LINE
  5
109
330
1F
100
AcDbEntity
  8
0
  6
Continuous
 62
     7
370
    25
100
AcDbLine
 10
93.846783134
 20
120.2320044809
 30
0.0
 11
92.846783134
 21
121.9640552885
 31
0.0
  0
LINE
  5
10A
330
1F
100
AcDbEntity
  8
0
  6
Continuous
 62
     7
370
    25
100
AcDbLine
 10
92.846783134
 20
121.9640552885
 30
0.0
 11
86.346783134
 21
121.9640552885
 31
0.0
  0
LINE
  5
10B
330
1F
100
AcDbEntity
  8
0
  6
Continuous
 62
     7
370
    25
100
AcDbLine
 10
86.346783134
 20
95.5240552885
 30
0.0
 11
92.846783134
 21
95.5240552885
 31
0.0
  0
LINE
  5
10C
330
1F
100
AcDbEntity
  8
0
  6
Continuous
 62
     7
370
    25
100
AcDbLine
 10
66.346783134
 20
121.2440552885
 30
0.0
 11
19.846783134
 21
121.2440552885
 31
0.0
  0
LINE
  5
10D
330
1F
100
AcDbEntity
  8
0
  6
Continuous
 62
     7
370
    25
100
AcDbLine
 10
19.846783134
 20
96.2440552885
 30
0.0
 11
66.346783134
 21
96.2440552885
 31
0.0
  0
LINE
  5
10E
330
1F
100
AcDbEntity
  8
0
  6
Continuous
 62
     7
370
    25
100
AcDbLine
 10
80.346783134
 20
89.114146136
 30
0.0
 11
86.346783134
 21
89.114146136
 31
0.0
  0
LINE
  5
10F
330
1F
100
AcDbEntity
  8
0
  6
Continuous
 62
     7
370
    25
100
AcDbLine
 10
80.346783134
 20
89.114146136
 30
0.0
 11
80.346783134
 21
98.9291007122
 31
0.0
  0
LINE
  5
110
330
1F
100
AcDbEntity
  8
0
  6
Continuous
 62
     7
370
    25
100
AcDbLine
 10
80.346783134
 20
98.9291007122
 30
0.0
 11
86.346783134
 21
98.9291007122
 31
0.0
  0
LINE
  5
111
330
1F
100
AcDbEntity
  8
0
  6
Continuous
 62
     7
370
    25
100
AcDbLine
 10
86.346783134
 20
89.114146136
 30
0.0
 11
86.346783134
 21
98.9291007122
 31
0.0
  0
LINE
  5
112
330
1F
100
AcDbEntity
  8
0
  6
Continuous
 62
     7
370
    25
100
AcDbLine
 10
80.346783134
 20
98.9291007122
 30
0.0
 11
80.346783134
 21
118.5590098647
 31
0.0
  0
LINE
  5
113
330
1F
100
AcDbEntity
  8
0
  6
Continuous
 62
     7
370
    25
100
AcDbLine
 10
80.346783134
 20
118.5590098647
 30
0.0
 11
86.346783134
 21
118.5590098647
 31
0.0
  0
LINE
  5
114
330
1F
100
AcDbEntity
  8
0
  6
Continuous
 62
     7
370
    25
100
AcDbLine
 10
86.346783134
 20
98.9291007122
 30
0.0
 11
86.346783134
 21
118.5590098647
 31
0.0
  0
LINE
  5
115
330
1F
100
AcDbEntity
  8
0
  6
Continuous
 62
     7
370
    25
100
AcDbLine
 10
80.346783134
 20
128.3739644409
 30
0.0
 11
86.346783134
 21
128.3739644409
 31
0.0
  0
LINE
  5
116
330
1F
100
AcDbEntity
  8
0
  6
Continuous
 62
     7
370
    25
100
AcDbLine
 10
80.346783134
 20
118.5590098647
 30
0.0
 11
80.346783134
 21
128.3739644409
 31
0.0
  0
LINE
  5
117
330
1F
100
AcDbEntity
  8
0
  6
Continuous
 62
     7
370
    25
100
AcDbLine
 10
86.346783134
 20
118.5590098647
 30
0.0
 11
86.346783134
 21
128.3739644409
 31
0.0
  0
LINE
  5
118
330
1F
100
AcDbEntity
  8
0
  6
Continuous
 62
     7
370
    25
100
AcDbLine
 10
66.346783134
 20
123.7440552885
 30
0.0
 11
66.346783134
 21
93.7440552885
 31
0.0
  0
LINE
  5
119
330
1F
100
AcDbEntity
  8
0
  6
Continuous
 62
     7
370
    25
100
AcDbLine
 10
98.846783134
 20
121.9640552885
 30
0.0
 11
98.846783134
 21
95.5240552885
 31
0.0
  0
LINE
  5
11A
330
1F
100
AcDbEntity
  8
0
  6
Continuous
 62
     7
370
    25
100
AcDbLine
 10
99.846783134
 20
120.2320044809
 30
0.0
 11
99.846783134
 21
97.256106096
 31
0.0
  0
LINE
  5
11B
330
1F
100
AcDbEntity
  8
0
  6
Continuous
 62
     7
370
    25
100
AcDbLine
 10
97.846783134
 20
120.2320044809
 30
0.0
 11
97.846783134
 21
97.256106096
 31
0.0
  0
LINE
  5
11C
330
1F
100
AcDbEntity
  8
0
  6
Continuous
 62
     7
370
    25
100
AcDbLine
 10
96.846783134
 20
121.9640552885
 30
0.0
 11
96.846783134
 21
95.5240552885
 31
0.0
  0
LINE
  5
11D
330
1F
100
AcDbEntity
  8
0
  6
Continuous
 62
     7
370
    25
100
AcDbLine
 10
95.846783134
 20
120.2320044809
 30
0.0
 11
95.846783134
 21
97.256106096
 31
0.0
  0
LINE
  5
11E
330
1F
100
AcDbEntity
  8
0
  6
Continuous
 62
     7
370
    25
100
AcDbLine
 10
94.846783134
 20
121.9640552885
 30
0.0
 11
94.846783134
 21
95.5240552885
 31
0.0
  0
LINE
  5
11F
330
1F
100
AcDbEntity
  8
0
  6
Continuous
 62
     7
370
    25
100
AcDbLine
 10
93.846783134
 20
120.2320044809
 30
0.0
 11
93.846783134
 21
97.256106096
 31
0.0
  0
LINE
  5
120
330
1F
100
AcDbEntity
  8
0
  6
Continuous
 62
     7
370
    25
100
AcDbLine
 10
92.846783134
 20
121.9640552885
 30
0.0
 11
92.846783134
 21
95.5240552885
 31
0.0
  0
LINE
  5
121
330
1F
100
AcDbEntity
  8
0
  6
Continuous
 62
     7
370
    25
100
AcDbLine
 10
19.846783134
 20
121.2440552885
 30
0.0
 11
19.846783134
 21
96.2440552885
 31
0.0
  0
LINE
  5
122
330
1F
100
AcDbEntity
  8
0
  6
Continuous
 62
     1
370
    25
100
AcDbLine
 10
66.846783134
 20
124.2440552885
 30
0.0
 11
66.846783134
 21
93.2440552885
 31
0.0
  0
LINE
  5
123
330
1F
100
AcDbEntity
  8
0
  6
Continuous
 62
     7
370
    25
100
AcDbLine
 10
230.570646213
 20
48.741984812
 30
0.0
 11
197.6901808878
 21
67.7234734119
 31
0.0
  0
LINE
  5
124
330
1F
100
AcDbEntity
  8
0
  6
Continuous
 62
     7
370
    25
100
AcDbLine
 10
185.1911967298
 20
46.0722518524
 30
0.0
 11
218.071662055
 21
27.0907632525
 31
0.0
  0
SPLINE
  5
125
330
1F
100
AcDbEntity
  8
0
  6
Continuous
 62
     7
370
    25
100
AcDbSpline
210
0.0
220
0.0
230
1.0
 70
     8
 71
     3
 72
    17
 73
    13
 74
     0
 42
0.00000001
 43
0.00000001
 40
0.0
 40
0.0
 40
0.0
 40
0.0
 40
0.0479985937265978
 40
0.1603214867285764
 40
0.2729805132151932
 40
0.3861214995469633
 40
0.4998205289861431
 40
0.6140840103760968
 40
0.7288618384094911
 40
0.8440679115947832
 40
0.9596013673030217
 40
1.0
 40
1.0
 40
1.0
 40
1.0
 10
231.6652977381201
 20
51.49234298722416
 30
0.0
 10
231.5900643954553
 20
51.52350832820715
 30
0.0
 10
231.3387753386073
 20
51.62760458213613
 30
0.0
 10
230.8846607617505
 20
51.74896200786929
 30
0.0
 10
230.3063189355554
 20
51.85727582045745
 30
0.0
 10
229.7051150357994
 20
51.90870016980521
 30
0.0
 10
229.0849537192956
 20
51.90693291158519
 30
0.0
 10
228.4474781055847
 20
51.85034505649942
 30
0.0
 10
227.7953552396891
 20
51.74039689267468
 30
0.0
 10
227.1308035052799
 20
51.57287909145439
 30
0.0
 10
226.6042844898946
 20
51.41018873891702
 30
0.0
 10
226.2986712782707
 20
51.28602098529981
 30
0.0
 10
226.2194935028043
 20
51.25385180496951
 30
0.0
  0
SPLINE
  5
126
330
1F
100
AcDbEntity
  8
0
  6
Continuous
 62
     7
370
    25
100
AcDbSpline
210
0.0
220
0.0
230
1.0
 70
     8
 71
     3
 72
    16
 73
    12
 74
     0
 42
0.00000001
 43
0.00000001
 40
0.0
 40
0.0
 40
0.0
 40
0.0
 40
0.1067049771279431
 40
0.2238196738844651
 40
0.3407542713492161
 40
0.4574076937545753
 40
0.5736686212794596
 40
0.6894304842452497
 40
0.8046130875471215
 40
0.9191866476961201
 40
1.0
 40
1.0
 40
1.0
 40
1.0
 10
213.7167540170097
 20
29.60479815007159
 30
0.0
 10
213.7535410254534
 20
29.38741181232974
 30
0.0
 10
213.8307038387978
 20
28.93143177719061
 30
0.0
 10
214.0009211107244
 20
28.27634770363899
 30
0.0
 10
214.2146514848192
 20
27.63416258817237
 30
0.0
 10
214.4706501034803
 20
27.03123874634335
 30
0.0
 10
214.7666464024495
 20
26.46954040262827
 30
0.0
 10
215.1011509206341
 20
25.9512103399944
 30
0.0
 10
215.4739354332359
 20
25.48068023623351
 30
0.0
 10
215.8383548417238
 20
25.09291177457093
 30
0.0
 10
216.0929693226998
 20
24.88401627163698
 30
0.0
 10
216.1982795990867
 20
24.79761567468108
 30
0.0
  0
LINE
  5
127
330
1F
100
AcDbEntity
  8
0
  6
Continuous
 62
     7
370
    25
100
AcDbLine
 10
241.9700192485
 20
45.6252746164
 30
0.0
 11
232.4240777025
 21
51.1360293712
 31
0.0
  0
LINE
  5
128
330
1F
100
AcDbEntity
  8
0
  6
Continuous
 62
     7
370
    25
100
AcDbLine
 10
216.9253373466
 20
24.2885146374
 30
0.0
 11
226.4712788927
 21
18.7777598826
 31
0.0
  0
LWPOLYLINE
  5
129
330
1F
100
AcDbEntity
  8
0
  6
Continuous
 62
     7
370
    25
100
AcDbPolyline
 90
       88
 70
   128
 43
0.0
 10
182.601854044
 20
51.7953119332
 10
182.6248948399
 20
52.5451100079
 10
182.6938971035
 20
53.3176013192
 10
182.8085010889
 20
54.1087584553
 10
182.9681093042
 20
54.9144566891
 10
183.1718896259
 20
55.730495483
 10
183.4187796377
 20
56.5526203888
 10
183.7074921696
 20
57.3765452278
 10
184.0365220079
 20
58.1979744373
 10
184.4041537436
 20
59.0126254659
 10
184.8084707149
 20
59.8162511003
 10
185.2473650005
 20
60.6046616085
 10
185.7185484086
 20
61.3737465833
 10
186.2195644072
 20
62.1194963716
 10
186.7478009309
 20
62.8380229794
 10
187.300503999
 20
63.5255803417
 10
187.8747920737
 20
64.1785838527
 10
188.4676710827
 20
64.7936290545
 10
189.0760500296
 20
65.3675093862
 10
189.6967571082
 20
65.8972329014
 10
190.3265562392
 20
66.3800378672
 10
190.9621639415
 20
66.8134071618
 10
191.6002664509
 20
67.1950813985
 10
192.2375369963
 20
67.5230707045
 10
192.8706531443
 20
67.7956650955
 10
193.4963141203
 20
68.0114433905
 10
194.1112580178
 20
68.1692806215
 10
194.712278804
 20
68.2683538981
 10
195.2962430349
 20
68.3081466982
 10
195.8601061912
 20
68.2884515606
 10
196.4009285517
 20
68.2093711665
 10
196.9158905189
 20
68.0713178045
 10
197.4023073197
 20
67.8750112211
 10
197.8576430019
 20
67.6214748676
 10
198.2795236563
 20
67.3120305654
 10
198.6657497924
 20
66.9482916138
 10
199.014307806
 20
66.5321543791
 10
199.323380477
 20
66.0657884083
 10
199.5913564436
 20
65.5516251175
 10
199.8168386033
 20
64.9923451162
 10
199.9986513963
 20
64.3908642312
 10
200.1358469351
 20
63.7503183055
 10
200.2277099455
 20
63.0740468487
 10
200.2737614965
 20
62.3655756273
 10
200.2737614965
 20
61.6285982821
 10
200.2277099455
 20
60.8669570716
 10
200.1358469351
 20
60.0846228406
 10
199.9986513963
 20
59.2856743175
 10
199.8168386033
 20
58.4742768499
 10
199.5913564436
 20
57.6546606884
 10
199.323380477
 20
56.8310989324
 10
199.014307806
 20
56.0078852513
 10
198.6657497924
 20
55.1893115003
 10
198.2795236563
 20
54.3796453437
 10
197.8576430019
 20
53.583108006
 10
197.4023073197
 20
52.8038522641
 10
196.9158905189
 20
52.0459407966
 10
196.4009285517
 20
51.3133250029
 10
195.8601061912
 20
50.6098244026
 10
195.2962430349
 20
49.939106722
 10
194.712278804
 20
49.3046687725
 10
194.1112580178
 20
48.70981822
 10
193.4963141203
 20
48.1576563396
 10
192.8706531443
 20
47.6510618479
 10
192.2375369963
 20
47.1926758938
 10
191.6002664509
 20
46.7848882895
 10
190.9621639415
 20
46.4298250508
 10
190.3265562392
 20
46.1293373129
 10
189.6967571082
 20
45.8849916798
 10
189.0760500296
 20
45.6980620566
 10
188.4676710827
 20
45.5695230076
 10
187.8747920737
 20
45.500044676
 10
187.300503999
 20
45.4899892896
 10
186.7478009309
 20
45.5394092726
 10
186.2195644072
 20
45.648046972
 10
185.7185484086
 20
45.8153360012
 10
185.2473650005
 20
46.0404041927
 10
184.8084707149
 20
46.322078145
 10
184.4041537436
 20
46.6588893407
 10
184.0365220079
 20
47.0490818022
 10
183.7074921696
 20
47.4906212465
 10
183.4187796377
 20
47.9812056915
 10
183.1718896259
 20
48.5182774571
 10
182.9681093042
 20
49.0990364998
 10
182.8085010889
 20
49.7204550108
 10
182.6938971035
 20
50.3792932017
 10
182.6248948399
 20
51.0721161952
 10
182.601854044
 20
51.7953119332
  0
LWPOLYLINE
  5
12A
330
1F
100
AcDbEntity
  8
0
  6
Continuous
 62
     7
370
    25
100
AcDbPolyline
 90
       46
 70
   128
 43
0.0
 10
230.570646213
 20
48.741984812
 10
230.7381083271
 20
48.6399862678
 10
231.1599889815
 20
48.3305419656
 10
231.5462151176
 20
47.9668030139
 10
231.8947731312
 20
47.5506657792
 10
232.2038458022
 20
47.0842998084
 10
232.4718217688
 20
46.5701365177
 10
232.6973039284
 20
46.0108565163
 10
232.8791167215
 20
45.4093756314
 10
233.0163122603
 20
44.7688297056
 10
233.1081752707
 20
44.0925582489
 10
233.1542268217
 20
43.3840870274
 10
233.1542268217
 20
42.6471096822
 10
233.1081752707
 20
41.8854684718
 10
233.0163122603
 20
41.1031342408
 10
232.8791167215
 20
40.3041857176
 10
232.6973039284
 20
39.49278825
 10
232.4718217688
 20
38.6731720886
 10
232.2038458022
 20
37.8496103325
 10
231.8947731312
 20
37.0263966515
 10
231.5462151176
 20
36.2078229004
 10
231.1599889815
 20
35.3981567438
 10
230.7381083271
 20
34.6016194061
 10
230.2827726448
 20
33.8223636642
 10
229.7963558441
 20
33.0644521967
 10
229.2813938769
 20
32.331836403
 10
228.7405715164
 20
31.6283358027
 10
228.17670836
 20
30.9576181221
 10
227.5927441292
 20
30.3231801727
 10
226.991723343
 20
29.7283296201
 10
226.3767794455
 20
29.1761677398
 10
225.7511184694
 20
28.669573248
 10
225.1180023215
 20
28.2111872939
 10
224.480731776
 20
27.8033996896
 10
223.8426292666
 20
27.4483364509
 10
223.2070215643
 20
27.147848713
 10
222.5772224334
 20
26.90350308
 10
221.9565153548
 20
26.7165734567
 10
221.3481364079
 20
26.5880344077
 10
220.7552573988
 20
26.5185560761
 10
220.1809693242
 20
26.5085006897
 10
219.6282662561
 20
26.5579206727
 10
219.1000297324
 20
26.6665583721
 10
218.5990137338
 20
26.8338474013
 10
218.1278303256
 20
27.0589155928
 10
218.071662055
 20
27.0907632525
  0
LWPOLYLINE
  5
12B
330
1F
100
AcDbEntity
  8
0
  6
Continuous
 62
     7
370
    25
100
AcDbPolyline
 90
       76
 70
   128
 43
0.0
 10
184.7231743875
 20
53.019924101
 10
184.7467336561
 20
53.6826251315
 10
184.8172462105
 20
54.3678787429
 10
184.9342174557
 20
55.0708783735
 10
185.0968269226
 20
55.786692986
 10
185.3039340226
 20
56.5103016552
 10
185.5540860482
 20
57.2366287862
 10
185.8455283626
 20
57.960579716
 10
186.1762167074
 20
58.677076449
 10
186.5438315414
 20
59.3810932755
 10
186.9457943109
 20
60.0676920232
 10
187.3792855356
 20
60.7320566953
 10
187.8412645862
 20
61.3695272508
 10
188.3284910116
 20
61.975632292
 10
188.8375472683
 20
62.5461204273
 10
189.3648626927
 20
63.0769900925
 10
189.9067385457
 20
63.5645176183
 10
190.4593739577
 20
64.0052833493
 10
191.0188925883
 20
64.3961956306
 10
191.5813698164
 20
64.7345124935
 10
192.1428602682
 20
65.0178608883
 10
192.6994254918
 20
65.2442533295
 10
193.247161582
 20
65.4121018368
 10
193.7822265635
 20
65.5202290736
 10
194.3008673402
 20
65.567876605
 10
194.7994460194
 20
65.5547102177
 10
195.2744654301
 20
65.4808222646
 10
195.7225936524
 20
65.3467310165
 10
196.1406873887
 20
65.1533770272
 10
196.525814012
 20
64.9021165359
 10
196.8752721356
 20
64.5947119546
 10
197.1866105619
 20
64.2333195055
 10
197.4576454755
 20
63.8204740969
 10
197.6864757613
 20
63.3590715428
 10
197.8714963392
 20
62.8523482505
 10
198.0114094229
 20
62.30385852
 10
198.1052336224
 20
61.7174496124
 10
198.1523108286
 20
61.0972347651
 10
198.1523108286
 20
60.4475643395
 10
198.1052336224
 20
59.7729953069
 10
198.0114094229
 20
59.0782592844
 10
197.8714963392
 20
58.3682293459
 10
197.6864757613
 20
57.6478858414
 10
197.4576454755
 20
56.922281463
 10
197.1866105619
 20
56.196505804
 10
196.8752721356
 20
55.4756496593
 10
196.525814012
 20
54.7647693167
 10
196.1406873887
 20
54.0688510911
 10
195.7225936524
 20
53.3927763488
 10
195.2744654301
 20
52.7412872684
 10
194.7994460194
 20
52.1189535777
 10
194.3008673402
 20
51.5301405003
 10
193.7822265635
 20
50.978978137
 10
193.247161582
 20
50.4693324957
 10
192.6994254918
 20
50.0047783744
 10
192.1428602682
 20
49.5885742865
 10
191.5813698164
 20
49.2236396047
 10
191.0188925883
 20
48.9125340834
 10
190.4593739577
 20
48.6574399045
 10
189.9067385457
 20
48.4601463703
 10
189.3648626927
 20
48.3220373532
 10
188.8375472683
 20
48.2440815887
 10
188.3284910116
 20
48.2268258804
 10
187.8412645862
 20
48.2703912649
 10
187.3792855356
 20
48.3744721621
 10
186.9457943109
 20
48.5383385195
 10
186.5438315414
 20
48.7608409322
 10
186.1762167074
 20
49.0404187056
 10
185.8455283626
 20
49.3751108027
 10
185.5540860482
 20
49.7625695987
 10
185.3039340226
 20
50.2000773487
 10
185.0968269226
 20
50.6845652501
 10
184.9342174557
 20
51.2126349684
 10
184.8172462105
 20
51.7805824739
 10
184.7467336561
 20
52.384424023
 10
184.7231743875
 20
53.019924101
  0
ARC
  5
12C
330
1F
100
AcDbEntity
  8
0
  6
Continuous
 62
     7
370
    25
100
AcDbCircle
 10
229.8264246717
 20
46.636146846
 30
0.0
 40
5.195748976266864
100
AcDbArc
 50
50.7729023272
 51
68.7008594699
  0
ARC
  5
12D
330
1F
100
AcDbEntity
  8
0
  6
Continuous
 62
     7
370
    25
100
AcDbCircle
 10
219.5231946576
 20
28.788703955
 30
0.0
 40
5.19611505181274
100
AcDbArc
 50
230.7909145396
 51
248.8882472958
  0
LWPOLYLINE
  5
12E
330
1F
100
AcDbEntity
  8
0
  6
Continuous
 62
     7
370
    25
100
AcDbPolyline
 90
       50
 70
   128
 43
0.0
 10
241.9700192485
 20
45.6252746164
 10
241.9706490706
 20
45.6249109687
 10
242.4609299772
 20
45.3034630522
 10
242.9159247359
 20
44.9259105923
 10
243.3336849893
 20
44.4938703267
 10
243.7124218239
 20
44.009192318
 10
244.0505134303
 20
43.4739520319
 10
244.3465120484
 20
42.8904414495
 10
244.5991501667
 20
42.2611592527
 10
244.8073459499
 20
41.5888001244
 10
244.9702078718
 20
40.8762432097
 10
245.0870385327
 20
40.1265397867
 10
245.1573376456
 20
39.3429002005
 10
245.180804179
 20
38.5286801161
 10
245.1573376456
 20
37.687366149
 10
245.0870385327
 20
36.8225609347
 10
244.9702078718
 20
35.9379677019
 10
244.8073459499
 20
35.0373744146
 10
244.5991501667
 20
34.1246375516
 10
244.3465120484
 20
33.2036655922
 10
244.0505134303
 20
32.2784022797
 10
243.7124218239
 20
31.3528097337
 10
243.3336849893
 20
30.4308514837
 10
242.9159247359
 20
29.5164754962
 10
242.4609299772
 20
28.6135972698
 10
241.9706490706
 20
27.7260830675
 10
241.4471814742
 20
26.8577333615
 10
240.8927687565
 20
26.0122665585
 10
240.3097849981
 20
25.1933030772
 10
239.7007266248
 20
24.4043498448
 10
239.0682017181
 20
23.6487852804
 10
238.4149188467
 20
22.9298448272
 10
237.7436754683
 20
22.2506070988
 10
237.0573459499
 20
21.6139806953
 10
236.35886926
 20
21.0226917488
 10
235.651236383
 20
20.4792722493
 10
234.9374775115
 20
19.9860492025
 10
234.2206490706
 20
19.5451346652
 10
233.5038206297
 20
19.1584167013
 10
232.7900617582
 20
18.8275512962
 10
232.0824288811
 20
18.5539552666
 10
231.3839521913
 20
18.3388001926
 10
230.6976226729
 20
18.1830074013
 10
230.0263792945
 20
18.0872440213
 10
229.3730964231
 20
18.0519201262
 10
228.7405715164
 20
18.0771869782
 10
228.1315131431
 20
18.1629363808
 10
227.5485293847
 20
18.308801142
 10
226.994116667
 20
18.5141566464
 10
226.4712788927
 20
18.7777598826
  0
LINE
  5
12F
330
1F
100
AcDbEntity
  8
0
  6
Continuous
 62
     7
370
    25
100
AcDbLine
 10
234.2206490706
 20
16.1728952929
 30
0.0
 11
238.4632897577
 21
13.7236709574
 31
0.0
  0
LINE
  5
130
330
1F
100
AcDbEntity
  8
0
  6
Continuous
 62
     7
370
    25
100
AcDbLine
 10
234.2206490706
 20
16.1728952929
 30
0.0
 11
246.2414643508
 21
31.1266752217
 31
0.0
  0
LINE
  5
131
330
1F
100
AcDbEntity
  8
0
  6
Continuous
 62
     7
370
    25
100
AcDbLine
 10
246.2414643508
 20
31.1266752217
 30
0.0
 11
250.4841050379
 21
28.6774508862
 31
0.0
  0
LINE
  5
132
330
1F
100
AcDbEntity
  8
0
  6
Continuous
 62
     7
370
    25
100
AcDbLine
 10
238.4632897577
 20
13.7236709574
 30
0.0
 11
250.4841050379
 21
28.6774508862
 31
0.0
  0
LINE
  5
133
330
1F
100
AcDbEntity
  8
0
  6
Continuous
 62
     7
370
    25
100
AcDbLine
 10
222.1998337904
 20
21.2436126529
 30
0.0
 11
222.1998337904
 21
17.2477373207
 31
0.0
  0
LINE
  5
134
330
1F
100
AcDbEntity
  8
0
  6
Continuous
 62
     7
370
    25
100
AcDbLine
 10
246.2414643508
 20
47.1552971783
 30
0.0
 11
238.0510577171
 21
47.8876429526
 31
0.0
  0
LINE
  5
135
330
1F
100
AcDbEntity
  8
0
  6
Continuous
 62
     7
370
    25
100
AcDbLine
 10
246.2414643508
 20
31.1266752217
 30
0.0
 11
246.2414643508
 21
47.1552971783
 31
0.0
  0
LINE
  5
136
330
1F
100
AcDbEntity
  8
0
  6
Continuous
 62
     7
370
    25
100
AcDbLine
 10
222.1998337904
 20
17.2477373207
 30
0.0
 11
234.2206490706
 21
16.1728952929
 31
0.0
  0
LINE
  5
137
330
1F
100
AcDbEntity
  8
0
  6
Continuous
 62
     7
370
    25
100
AcDbLine
 10
246.2414643508
 20
47.1552971783
 30
0.0
 11
250.4841050379
 21
44.7060728428
 31
0.0
  0
LINE
  5
138
330
1F
100
AcDbEntity
  8
0
  6
Continuous
 62
     7
370
    25
100
AcDbLine
 10
250.4841050379
 20
28.6774508862
 30
0.0
 11
250.4841050379
 21
44.7060728428
 31
0.0
  0
LWPOLYLINE
  5
139
330
1F
100
AcDbEntity
  8
0
  6
Continuous
 62
     7
370
    25
100
AcDbPolyline
 90
       39
 70
   128
 43
0.0
 10
250.4841050379
 20
37.9438381977
 10
250.7742616342
 20
37.6484501051
 10
251.1274098774
 20
37.2087203775
 10
251.4403641189
 20
36.7186243649
 10
251.7115652364
 20
36.1806037009
 10
251.9396621196
 20
35.5973387774
 10
252.1235184013
 20
34.971735391
 10
252.2622181187
 20
34.3069102662
 10
252.3550702768
 20
33.6061755284
 10
252.4016122909
 20
32.8730222028
 10
252.4016122909
 20
32.1111028224
 10
252.3550702768
 20
31.3242132312
 10
252.2622181187
 20
30.5162736736
 10
252.1235184013
 20
29.6913092638
 10
251.9396621196
 20
28.853429933
 10
251.7115652364
 20
28.0068099538
 10
251.4403641189
 20
27.1556671445
 10
251.1274098774
 20
26.3042418557
 10
250.7742616342
 20
25.4567758454
 10
250.382678756
 20
24.6174911465
 10
249.9546120891
 20
23.7905690333
 10
249.4921942401
 20
22.9801291901
 10
248.9977289514
 20
22.1902091874
 10
248.4736796243
 20
21.424744367
 10
247.922657046
 20
20.6875482361
 10
247.3474063835
 20
19.9822934688
 10
246.7507935065
 20
19.3124936087
 10
246.1357907105
 20
18.6814855652
 10
245.5054619083
 20
18.0924129885
 10
244.8629473664
 20
17.5482106086
 10
244.2114480599
 20
17.0515896145
 10
243.5542097255
 20
16.6050241468
 10
242.8945066917
 20
16.2107389723
 10
242.2356255657
 20
15.8706983999
 10
241.5808488602
 20
15.5865964947
 10
240.9334386397
 20
15.3598486379
 10
240.2966202695
 20
15.1915844761
 10
239.6735663466
 20
15.0826422929
 10
239.5433043614
 20
15.0671988569
  0
LINE
  5
13A
330
1F
100
AcDbEntity
  8
0
  6
Continuous
 62
     7
370
    25
100
AcDbLine
 10
222.1998337904
 20
17.2477373207
 30
0.0
 11
226.4424744775
 21
14.7985129852
 31
0.0
  0
LINE
  5
13B
330
1F
100
AcDbEntity
  8
0
  6
Continuous
 62
     7
370
    25
100
AcDbLine
 10
226.4424744775
 20
14.7985129852
 30
0.0
 11
238.4632897577
 21
13.7236709574
 31
0.0
  0
LWPOLYLINE
  5
13C
330
1F
100
AcDbEntity
  8
0
  6
Continuous
 62
     7
370
    25
100
AcDbPolyline
 90
       45
 70
   128
 43
0.0
 10
250.4841050379
 20
38.0198805299
 10
250.9064078025
 20
37.8284451433
 10
251.3688256515
 20
37.5519015842
 10
251.7968923184
 20
37.2192147245
 10
252.1884751965
 20
36.8320419933
 10
252.5416234398
 20
36.3923122657
 10
252.8545776813
 20
35.902216253
 10
253.1257787988
 20
35.364195589
 10
253.353875682
 20
34.7809306656
 10
253.5377319637
 20
34.1553272792
 10
253.6764316811
 20
33.4905021544
 10
253.7692838392
 20
32.7897674166
 10
253.8158258532
 20
32.056614091
 10
253.8158258532
 20
31.2946947106
 10
253.7692838392
 20
30.5078051194
 10
253.6764316811
 20
29.6998655618
 10
253.5377319637
 20
28.874901152
 10
253.353875682
 20
28.0370218212
 10
253.1257787988
 20
27.190401842
 10
252.8545776813
 20
26.3392590327
 10
252.5416234398
 20
25.4878337439
 10
252.1884751965
 20
24.6403677336
 10
251.7968923184
 20
23.8010830347
 10
251.3688256515
 20
22.9741609215
 10
250.9064078025
 20
22.1637210783
 10
250.4119425138
 20
21.3738010756
 10
249.8878931866
 20
20.6083362552
 10
249.3368706084
 20
19.8711401243
 10
248.7616199459
 20
19.1658853569
 10
248.1650070689
 20
18.4960854969
 10
247.5500042728
 20
17.8650774534
 10
246.9196754707
 20
17.2760048767
 10
246.2771609287
 20
16.7318024968
 10
245.6256616222
 20
16.2351815026
 10
244.9684232879
 20
15.788616035
 10
244.3087202541
 20
15.3943308605
 10
243.6498391281
 20
15.0542902881
 10
242.9950624226
 20
14.7701883828
 10
242.3476522021
 20
14.5434405261
 10
241.7108338319
 20
14.3751763643
 10
241.0877799089
 20
14.2662341811
 10
240.4815944566
 20
14.2171567208
 10
239.8952974603
 20
14.228188485
 10
239.3318098222
 20
14.299274514
 10
238.9872060719
 20
14.3754178715
  0
LWPOLYLINE
  5
13D
330
1F
100
AcDbEntity
  8
0
  6
Continuous
 62
     7
370
    25
100
AcDbPolyline
 90
       49
 70
   128
 43
0.0
 10
251.7523459544
 20
37.2578320455
 10
251.8261560762
 20
37.2310595637
 10
252.3206213648
 20
37.0120370315
 10
252.7830392138
 20
36.7354934724
 10
253.2111058807
 20
36.4028066127
 10
253.6026887589
 20
36.0156338815
 10
253.9558370021
 20
35.5759041539
 10
254.2687912437
 20
35.0858081412
 10
254.5399923612
 20
34.5477874772
 10
254.7680892444
 20
33.9645225537
 10
254.9519455261
 20
33.3389191673
 10
255.0906452435
 20
32.6740940426
 10
255.1834974016
 20
31.9733593048
 10
255.2300394156
 20
31.2402059792
 10
255.2300394156
 20
30.4782865988
 10
255.1834974016
 20
29.6913970076
 10
255.0906452435
 20
28.88345745
 10
254.9519455261
 20
28.0584930401
 10
254.7680892444
 20
27.2206137093
 10
254.5399923612
 20
26.3739937302
 10
254.2687912437
 20
25.5228509209
 10
253.9558370021
 20
24.6714256321
 10
253.6026887589
 20
23.8239596217
 10
253.2111058807
 20
22.9846749229
 10
252.7830392138
 20
22.1577528096
 10
252.3206213648
 20
21.3473129664
 10
251.8261560762
 20
20.5573929638
 10
251.302106749
 20
19.7919281434
 10
250.7510841708
 20
19.0547320125
 10
250.1758335083
 20
18.3494772451
 10
249.5792206313
 20
17.6796773851
 10
248.9642178352
 20
17.0486693415
 10
248.333889033
 20
16.4595967649
 10
247.6913744911
 20
15.915394385
 10
247.0398751846
 20
15.4187733908
 10
246.3826368503
 20
14.9722079231
 10
245.7229338165
 20
14.5779227487
 10
245.0640526905
 20
14.2378821763
 10
244.4092759849
 20
13.953780271
 10
243.7618657645
 20
13.7270324143
 10
243.1250473942
 20
13.5587682525
 10
242.5019934713
 20
13.4498260692
 10
241.895808019
 20
13.400748609
 10
241.3095110227
 20
13.4117803732
 10
240.7460233846
 20
13.4828664022
 10
240.2081523718
 20
13.6136525489
 10
239.6985776305
 20
13.8034872433
 10
239.2198378366
 20
14.0514247386
 10
238.8975118458
 20
14.2638391069
  0
LWPOLYLINE
  5
13E
330
1F
100
AcDbEntity
  8
0
  6
Continuous
 62
     7
370
    25
100
AcDbPolyline
 90
       50
 70
   128
 43
0.0
 10
253.1665595168
 20
36.4414239337
 10
253.2403696385
 20
36.4146514519
 10
253.7348349272
 20
36.1956289196
 10
254.1972527762
 20
35.9190853606
 10
254.6253194431
 20
35.5863985009
 10
255.0169023213
 20
35.1992257697
 10
255.3700505645
 20
34.759496042
 10
255.683004806
 20
34.2694000294
 10
255.9542059236
 20
33.7313793654
 10
256.1823028068
 20
33.1481144419
 10
256.3661590884
 20
32.5225110555
 10
256.5048588058
 20
31.8576859307
 10
256.5977109639
 20
31.156951193
 10
256.644252978
 20
30.4237978674
 10
256.644252978
 20
29.661878487
 10
256.5977109639
 20
28.8749888958
 10
256.5048588058
 20
28.0670493381
 10
256.3661590884
 20
27.2420849283
 10
256.1823028068
 20
26.4042055975
 10
255.9542059236
 20
25.5575856184
 10
255.683004806
 20
24.7064428091
 10
255.3700505645
 20
23.8550175203
 10
255.0169023213
 20
23.0075515099
 10
254.6253194431
 20
22.1682668111
 10
254.1972527762
 20
21.3413446978
 10
253.7348349272
 20
20.5309048546
 10
253.2403696385
 20
19.740984852
 10
252.7163203114
 20
18.9755200316
 10
252.1652977332
 20
18.2383239007
 10
251.5900470706
 20
17.5330691333
 10
250.9934341937
 20
16.8632692732
 10
250.3784313976
 20
16.2322612297
 10
249.7481025954
 20
15.643188653
 10
249.1055880535
 20
15.0989862732
 10
248.454088747
 20
14.602365279
 10
247.7968504127
 20
14.1557998113
 10
247.1371473788
 20
13.7615146368
 10
246.4782662529
 20
13.4214740644
 10
245.8234895473
 20
13.1373721592
 10
245.1760793269
 20
12.9106243025
 10
244.5392609566
 20
12.7423601407
 10
243.9162070337
 20
12.6334179574
 10
243.3100215814
 20
12.5843404972
 10
242.7237245851
 20
12.5953722614
 10
242.160236947
 20
12.6664582904
 10
241.6223659342
 20
12.7972444371
 10
241.1127911929
 20
12.9870791315
 10
240.634051399
 20
13.2350166268
 10
240.1885316099
 20
13.5398217107
 10
240.0234759659
 20
13.6744686083
  0
LWPOLYLINE
  5
13F
330
1F
100
AcDbEntity
  8
0
  6
Continuous
 62
     1
370
    25
100
AcDbPolyline
 90
       67
 70
   128
 43
0.0
 10
226.4245283357
 20
51.1354877154
 10
226.5835383638
 20
51.1886649483
 10
227.2634563026
 20
51.3823477204
 10
227.9305083026
 20
51.5171472159
 10
228.5817775151
 20
51.5924739908
 10
229.2144161057
 20
51.6079986602
 10
229.8256577067
 20
51.5636533388
 10
230.4128295142
 20
51.4596319374
 10
230.9733639751
 20
51.2963893151
 10
231.504810015
 20
51.0746392904
 10
232.0048437555
 20
50.7953515196
 10
232.4712786764
 20
50.4597472572
 10
232.9020751762
 20
50.0692940151
 10
233.2953494917
 20
49.6256991462
 10
233.6493819343
 20
49.1309023778
 10
233.9626244101
 20
48.5870673303
 10
234.2337071896
 20
47.9965720561
 10
234.4614448967
 20
47.3619986407
 10
234.6448416923
 20
46.6861219122
 10
234.783095629
 20
45.9718973076
 10
234.8756021575
 20
45.2224479493
 10
234.9219567702
 20
44.4410509887
 10
234.9219567702
 20
43.6311232759
 10
234.8756021575
 20
42.7962064188
 10
234.783095629
 20
41.9399512962
 10
234.6448416923
 20
41.066102094
 10
234.4614448967
 20
40.1784799323
 10
234.2337071896
 20
39.2809661572
 10
233.9626244101
 20
38.3774853679
 10
233.6493819343
 20
37.471988256
 10
233.2953494917
 20
36.5684343301
 10
232.9020751762
 20
35.6707746015
 10
232.4712786764
 20
34.7829343079
 10
232.0048437555
 20
33.9087957489
 10
231.504810015
 20
33.05218131
 10
230.9733639751
 20
32.2168367483
 10
230.4128295142
 20
31.406414813
 10
229.8256577067
 20
30.624459273
 10
229.2144161057
 20
29.8743894209
 10
228.5817775151
 20
29.1594851212
 10
227.9305083026
 20
28.4828724688
 10
227.2634563026
 20
27.8475101184
 10
226.5835383638
 20
27.256176348
 10
225.8937275945
 20
26.7114569097
 10
225.1970403615
 20
26.2157337231
 10
224.4965231009
 20
25.7711744594
 10
223.7952389965
 20
25.3797230633
 10
223.0962545851
 20
25.0430912521
 10
222.4026263478
 20
24.762751031
 10
221.7173873444
 20
24.5399282566
 10
221.0435339506
 20
24.375597276
 10
220.384012756
 20
24.2704766669
 10
219.7417076788
 20
24.225026095
 10
219.1194273558
 20
24.239444304
 10
218.5198928605
 20
24.3136682468
 10
217.9457258047
 20
24.4473733609
 10
217.3994368748
 20
24.639974988
 10
216.8834148533
 20
24.8906309301
 10
216.3999161733
 20
25.1982451325
 10
215.9510550514
 20
25.5614724766
 10
215.5387942432
 20
25.9787246617
 10
215.1649364602
 20
26.44817715
 10
214.8311164873
 20
26.9677771455
 10
214.5387940345
 20
27.5352525693
 10
214.2892473534
 20
28.148121996
 10
214.0835676482
 20
28.8037055034
 10
213.9255441777
 20
29.4842661559
  0
LWPOLYLINE
  5
140
330
1F
100
AcDbEntity
  8
0
  6
Continuous
 62
     1
370
    25
100
AcDbPolyline
 90
       47
 70
   128
 43
0.0
 10
233.1121941748
 20
50.6610103463
 10
233.3699831899
 20
50.4366653471
 10
233.7877434433
 20
50.0046250815
 10
234.1664802779
 20
49.5199470728
 10
234.5045718843
 20
48.9847067867
 10
234.8005705024
 20
48.4011962043
 10
235.0532086206
 20
47.7719140075
 10
235.2614044039
 20
47.0995548792
 10
235.4242663258
 20
46.3869979645
 10
235.5410969866
 20
45.6372945415
 10
235.6113960996
 20
44.8536549553
 10
235.634862633
 20
44.0394348709
 10
235.6113960996
 20
43.1981209038
 10
235.5410969866
 20
42.3333156895
 10
235.4242663258
 20
41.4487224567
 10
235.2614044039
 20
40.5481291694
 10
235.0532086206
 20
39.6353923064
 10
234.8005705024
 20
38.714420347
 10
234.5045718843
 20
37.7891570345
 10
234.1664802779
 20
36.8635644885
 10
233.7877434433
 20
35.9416062385
 10
233.3699831899
 20
35.027230251
 10
232.9149884312
 20
34.1243520246
 10
232.4247075246
 20
33.2368378223
 10
231.9012399281
 20
32.3684881163
 10
231.3468272105
 20
31.5230213133
 10
230.7638434521
 20
30.704057832
 10
230.1547850788
 20
29.9151045996
 10
229.5222601721
 20
29.1595400352
 10
228.8689773007
 20
28.440599582
 10
228.1977339223
 20
27.7613618536
 10
227.5114044039
 20
27.1247354501
 10
226.812927714
 20
26.5334465036
 10
226.105294837
 20
25.9900270041
 10
225.3915359655
 20
25.4968039573
 10
224.6747075246
 20
25.05588942
 10
223.9578790836
 20
24.6691714561
 10
223.2441202121
 20
24.338306051
 10
222.5364873351
 20
24.0647100214
 10
221.8380106452
 20
23.8495549474
 10
221.1516811269
 20
23.6937621561
 10
220.4804377484
 20
23.5979987761
 10
219.8271548771
 20
23.562674881
 10
219.1946299704
 20
23.587941733
 10
218.5855715971
 20
23.6736911357
 10
218.0025878386
 20
23.8195558968
 10
217.6516154801
 20
23.9413538527
  0
LINE
  5
141
330
1F
100
AcDbEntity
  8
0
  6
Continuous
 62
     7
370
    25
100
AcDbLine
 10
124.3323425481
 20
62.2001834615
 30
0.0
 11
124.3323425481
 21
48.7001834615
 31
0.0
  0
LINE
  5
142
330
1F
100
AcDbEntity
  8
0
  6
Continuous
 62
     7
370
    25
100
AcDbLine
 10
155.3323425481
 20
48.7001834615
 30
0.0
 11
155.3323425481
 21
62.2001834615
 31
0.0
  0
ARC
  5
143
330
1F
100
AcDbEntity
  8
0
  6
Continuous
 62
     7
370
    25
100
AcDbCircle
 10
124.8323425481
 20
48.7001834615
 30
0.0
 40
0.5000000000000142
100
AcDbArc
 50
180.0
 51
270.0
  0
ARC
  5
144
330
1F
100
AcDbEntity
  8
0
  6
Continuous
 62
     7
370
    25
100
AcDbCircle
 10
154.8323425481
 20
48.7001834615
 30
0.0
 40
0.5
100
AcDbArc
 50
270.0
 51
360.0
  0
LINE
  5
145
330
1F
100
AcDbEntity
  8
0
  6
Continuous
 62
     7
370
    25
100
AcDbLine
 10
153.0523425481
 20
80.7001834615
 30
0.0
 11
151.3202917405
 21
81.7001834615
 31
0.0
  0
LINE
  5
146
330
1F
100
AcDbEntity
  8
0
  6
Continuous
 62
     7
370
    25
100
AcDbLine
 10
128.3443933556
 20
81.7001834615
 30
0.0
 11
126.6123425481
 21
80.7001834615
 31
0.0
  0
LINE
  5
147
330
1F
100
AcDbEntity
  8
0
  6
Continuous
 62
     7
370
    25
100
AcDbLine
 10
126.6123425481
 20
80.7001834615
 30
0.0
 11
128.3443933556
 21
79.7001834615
 31
0.0
  0
LINE
  5
148
330
1F
100
AcDbEntity
  8
0
  6
Continuous
 62
     7
370
    25
100
AcDbLine
 10
151.3202917405
 20
79.7001834615
 30
0.0
 11
153.0523425481
 21
80.7001834615
 31
0.0
  0
LINE
  5
149
330
1F
100
AcDbEntity
  8
0
  6
Continuous
 62
     7
370
    25
100
AcDbLine
 10
153.0523425481
 20
78.7001834615
 30
0.0
 11
151.3202917405
 21
79.7001834615
 31
0.0
  0
LINE
  5
14A
330
1F
100
AcDbEntity
  8
0
  6
Continuous
 62
     7
370
    25
100
AcDbLine
 10
128.3443933556
 20
79.7001834615
 30
0.0
 11
126.6123425481
 21
78.7001834615
 31
0.0
  0
LINE
  5
14B
330
1F
100
AcDbEntity
  8
0
  6
Continuous
 62
     7
370
    25
100
AcDbLine
 10
126.6123425481
 20
78.7001834615
 30
0.0
 11
128.3443933556
 21
77.7001834615
 31
0.0
  0
LINE
  5
14C
330
1F
100
AcDbEntity
  8
0
  6
Continuous
 62
     7
370
    25
100
AcDbLine
 10
151.3202917405
 20
77.7001834615
 30
0.0
 11
153.0523425481
 21
78.7001834615
 31
0.0
  0
LINE
  5
14D
330
1F
100
AcDbEntity
  8
0
  6
Continuous
 62
     7
370
    25
100
AcDbLine
 10
153.0523425481
 20
76.7001834615
 30
0.0
 11
151.3202917405
 21
77.7001834615
 31
0.0
  0
LINE
  5
14E
330
1F
100
AcDbEntity
  8
0
  6
Continuous
 62
     7
370
    25
100
AcDbLine
 10
128.3443933556
 20
77.7001834615
 30
0.0
 11
126.6123425481
 21
76.7001834615
 31
0.0
  0
LINE
  5
14F
330
1F
100
AcDbEntity
  8
0
  6
Continuous
 62
     7
370
    25
100
AcDbLine
 10
126.6123425481
 20
76.7001834615
 30
0.0
 11
128.3443933556
 21
75.7001834615
 31
0.0
  0
LINE
  5
150
330
1F
100
AcDbEntity
  8
0
  6
Continuous
 62
     7
370
    25
100
AcDbLine
 10
151.3202917405
 20
75.7001834615
 30
0.0
 11
153.0523425481
 21
76.7001834615
 31
0.0
  0
LINE
  5
151
330
1F
100
AcDbEntity
  8
0
  6
Continuous
 62
     7
370
    25
100
AcDbLine
 10
153.0523425481
 20
74.7001834615
 30
0.0
 11
151.3202917405
 21
75.7001834615
 31
0.0
  0
LINE
  5
152
330
1F
100
AcDbEntity
  8
0
  6
Continuous
 62
     7
370
    25
100
AcDbLine
 10
128.3443933556
 20
75.7001834615
 30
0.0
 11
126.6123425481
 21
74.7001834615
 31
0.0
  0
LINE
  5
153
330
1F
100
AcDbEntity
  8
0
  6
Continuous
 62
     7
370
    25
100
AcDbLine
 10
126.6123425481
 20
74.7001834615
 30
0.0
 11
126.6123425481
 21
68.2001834615
 31
0.0
  0
LINE
  5
154
330
1F
100
AcDbEntity
  8
0
  6
Continuous
 62
     7
370
    25
100
AcDbLine
 10
153.0523425481
 20
68.2001834615
 30
0.0
 11
153.0523425481
 21
74.7001834615
 31
0.0
  0
LINE
  5
155
330
1F
100
AcDbEntity
  8
0
  6
Continuous
 62
     7
370
    25
100
AcDbLine
 10
127.3323425481
 20
48.2001834615
 30
0.0
 11
127.3323425481
 21
1.7001834615
 31
0.0
  0
LINE
  5
156
330
1F
100
AcDbEntity
  8
0
  6
Continuous
 62
     7
370
    25
100
AcDbLine
 10
152.3323425481
 20
1.7001834615
 30
0.0
 11
152.3323425481
 21
48.2001834615
 31
0.0
  0
LINE
  5
157
330
1F
100
AcDbEntity
  8
0
  6
Continuous
 62
     7
370
    25
100
AcDbLine
 10
139.8323425481
 20
62.2001834615
 30
0.0
 11
139.8323425481
 21
68.2001834615
 31
0.0
  0
LINE
  5
158
330
1F
100
AcDbEntity
  8
0
  6
Continuous
 62
     7
370
    25
100
AcDbLine
 10
139.8323425481
 20
62.2001834615
 30
0.0
 11
122.8323425481
 21
62.2001834615
 31
0.0
  0
LINE
  5
159
330
1F
100
AcDbEntity
  8
0
  6
Continuous
 62
     7
370
    25
100
AcDbLine
 10
122.8323425481
 20
62.2001834615
 30
0.0
 11
122.8323425481
 21
68.2001834615
 31
0.0
  0
LINE
  5
15A
330
1F
100
AcDbEntity
  8
0
  6
Continuous
 62
     7
370
    25
100
AcDbLine
 10
139.8323425481
 20
68.2001834615
 30
0.0
 11
122.8323425481
 21
68.2001834615
 31
0.0
  0
LINE
  5
15B
330
1F
100
AcDbEntity
  8
0
  6
Continuous
 62
     7
370
    25
100
AcDbLine
 10
156.8323425481
 20
62.2001834615
 30
0.0
 11
156.8323425481
 21
68.2001834615
 31
0.0
  0
LINE
  5
15C
330
1F
100
AcDbEntity
  8
0
  6
Continuous
 62
     7
370
    25
100
AcDbLine
 10
156.8323425481
 20
62.2001834615
 30
0.0
 11
139.8323425481
 21
62.2001834615
 31
0.0
  0
LINE
  5
15D
330
1F
100
AcDbEntity
  8
0
  6
Continuous
 62
     7
370
    25
100
AcDbLine
 10
156.8323425481
 20
68.2001834615
 30
0.0
 11
139.8323425481
 21
68.2001834615
 31
0.0
  0
LINE
  5
15E
330
1F
100
AcDbEntity
  8
0
  6
Continuous
 62
     7
370
    25
100
AcDbLine
 10
124.8323425481
 20
48.2001834615
 30
0.0
 11
154.8323425458
 21
48.2001834615
 31
0.0
  0
LINE
  5
15F
330
1F
100
AcDbEntity
  8
0
  6
Continuous
 62
     7
370
    25
100
AcDbLine
 10
126.6123425481
 20
80.7001834615
 30
0.0
 11
153.0523425481
 21
80.7001834615
 31
0.0
  0
LINE
  5
160
330
1F
100
AcDbEntity
  8
0
  6
Continuous
 62
     7
370
    25
100
AcDbLine
 10
128.3443933556
 20
81.7001834615
 30
0.0
 11
151.3202917405
 21
81.7001834615
 31
0.0
  0
LINE
  5
161
330
1F
100
AcDbEntity
  8
0
  6
Continuous
 62
     7
370
    25
100
AcDbLine
 10
128.3443933556
 20
79.7001834615
 30
0.0
 11
151.3202917405
 21
79.7001834615
 31
0.0
  0
LINE
  5
162
330
1F
100
AcDbEntity
  8
0
  6
Continuous
 62
     7
370
    25
100
AcDbLine
 10
126.6123425481
 20
78.7001834615
 30
0.0
 11
153.0523425481
 21
78.7001834615
 31
0.0
  0
LINE
  5
163
330
1F
100
AcDbEntity
  8
0
  6
Continuous
 62
     7
370
    25
100
AcDbLine
 10
128.3443933556
 20
77.7001834615
 30
0.0
 11
151.3202917405
 21
77.7001834615
 31
0.0
  0
LINE
  5
164
330
1F
100
AcDbEntity
  8
0
  6
Continuous
 62
     7
370
    25
100
AcDbLine
 10
126.6123425481
 20
76.7001834615
 30
0.0
 11
153.0523425481
 21
76.7001834615
 31
0.0
  0
LINE
  5
165
330
1F
100
AcDbEntity
  8
0
  6
Continuous
 62
     7
370
    25
100
AcDbLine
 10
128.3443933556
 20
75.7001834615
 30
0.0
 11
151.3202917405
 21
75.7001834615
 31
0.0
  0
LINE
  5
166
330
1F
100
AcDbEntity
  8
0
  6
Continuous
 62
     7
370
    25
100
AcDbLine
 10
126.6123425481
 20
74.7001834615
 30
0.0
 11
153.0523425481
 21
74.7001834615
 31
0.0
  0
LINE
  5
167
330
1F
100
AcDbEntity
  8
0
  6
Continuous
 62
     7
370
    25
100
AcDbLine
 10
127.3323425481
 20
1.7001834615
 30
0.0
 11
152.3323425481
 21
1.7001834615
 31
0.0
  0
LINE
  5
168
330
1F
100
AcDbEntity
  8
0
  6
Continuous
 62
     1
370
    25
100
AcDbLine
 10
124.3323425481
 20
48.7001834615
 30
0.0
 11
155.3323425481
 21
48.7001834615
 31
0.0
  0
ENDSEC
  0
SECTION
  2
OBJECTS
  0
DICTIONARY
  5
C
330
0
100
AcDbDictionary
281
     1
  3
ACAD_GROUP
350
D
  3
ACAD_LAYOUT
350
1A
  3
ACAD_MLINESTYLE
350
17
  3
ACAD_PLOTSETTINGS
350
19
  3
ACAD_PLOTSTYLENAME
350
E
  3
ACAD_SCALELIST
350
47
  3
DWGPROPS
350
169
  0
DICTIONARY
  5
D
102
{ACAD_REACTORS
330
C
102
}
330
C
100
AcDbDictionary
281
     1
  0
DICTIONARY
  5
1A
102
{ACAD_REACTORS
330
C
102
}
330
C
100
AcDbDictionary
281
     1
  3
Layout1
350
1E
  3
Layout2
350
26
  3
Model
350
22
  0
DICTIONARY
  5
17
102
{ACAD_REACTORS
330
C
102
}
330
C
100
AcDbDictionary
281
     1
  3
Standard
350
18
  0
DICTIONARY
  5
19
102
{ACAD_REACTORS
330
C
102
}
330
C
100
AcDbDictionary
281
     1
  0
ACDBDICTIONARYWDFLT
  5
E
102
{ACAD_REACTORS
330
C
102
}
330
C
100
AcDbDictionary
281
     1
  3
Normal
350
F
100
AcDbDictionaryWithDefault
340
F
  0
DICTIONARY
  5
47
102
{ACAD_REACTORS
330
C
102
}
330
C
100
AcDbDictionary
281
     1
  3
A0
350
48
  3
A1
350
49
  3
A2
350
4A
  3
A3
350
4B
  3
A4
350
4C
  3
A5
350
4D
  3
A6
350
4E
  3
A7
350
4F
  3
A8
350
50
  3
A9
350
51
  3
B0
350
52
  3
B1
350
53
  3
B2
350
54
  3
B3
350
55
  3
B4
350
56
  3
B5
350
57
  3
B6
350
58
  3
B7
350
59
  3
B8
350
5A
  3
B9
350
5B
  3
C0
350
5C
  3
C1
350
5D
  3
C2
350
5E
  3
C3
350
5F
  3
C4
350
60
  3
C5
350
61
  3
C6
350
62
  3
C7
350
63
  3
C8
350
64
  3
C9
350
65
  3
D0
350
66
  3
D1
350
67
  3
D2
350
68
  0
XRECORD
  5
169
102
{ACAD_REACTORS
330
C
102
}
330
C
100
AcDbXrecord
280
     1
  1
DWGPROPS COOKIE
  2

  3

  4

  6

  7

  8
b.kav
  9

300
=
301
=
302
=
303
=
304
=
305
=
306
=
307
=
308
=
309
=
 40
0.0
 41
2459948.454373518
 42
2459948.454373704
  1

 90
        0
  0
LAYOUT
  5
1E
102
{ACAD_REACTORS
330
1A
102
}
330
1A
100
AcDbPlotSettings
  1

  2
none_device
  4

  6

 40
0.0
 41
0.0
 42
0.0
 43
0.0
 44
0.0
 45
0.0
 46
0.0
 47
0.0
 48
0.0
 49
0.0
140
0.0
141
0.0
142
1.0
143
1.0
 70
   688
 72
     1
 73
     0
 74
     5
  7

 75
    16
147
1.0
148
0.0
149
0.0
100
AcDbLayout
  1
Layout1
 70
     1
 71
     1
 10
0.0
 20
0.0
 11
420.0
 21
297.0
 12
0.0
 22
0.0
 32
0.0
 14
1.0000000000E+20
 24
1.0000000000E+20
 34
1.0000000000E+20
 15
-1.0000000000E+20
 25
-1.0000000000E+20
 35
-1.0000000000E+20
146
0.0
 13
0.0
 23
0.0
 33
0.0
 16
1.0
 26
0.0
 36
0.0
 17
0.0
 27
1.0
 37
0.0
 76
     0
330
1B
  0
LAYOUT
  5
26
102
{ACAD_REACTORS
330
1A
102
}
330
1A
100
AcDbPlotSettings
  1

  2
none_device
  4

  6

 40
0.0
 41
0.0
 42
0.0
 43
0.0
 44
0.0
 45
0.0
 46
0.0
 47
0.0
 48
0.0
 49
0.0
140
0.0
141
0.0
142
1.0
143
1.0
 70
   688
 72
     1
 73
     0
 74
     5
  7

 75
    16
147
1.0
148
0.0
149
0.0
100
AcDbLayout
  1
Layout2
 70
     1
 71
     2
 10
0.0
 20
0.0
 11
0.0
 21
0.0
 12
0.0
 22
0.0
 32
0.0
 14
0.0
 24
0.0
 34
0.0
 15
0.0
 25
0.0
 35
0.0
146
0.0
 13
0.0
 23
0.0
 33
0.0
 16
1.0
 26
0.0
 36
0.0
 17
0.0
 27
1.0
 37
0.0
 76
     0
330
23
  0
LAYOUT
  5
22
102
{ACAD_REACTORS
330
1A
102
}
330
1A
100
AcDbPlotSettings
  1

  2
none_device
  4
Letter_(8.50_x_11.00_Inches)
  6

 40
6.35
 41
6.35
 42
6.35000508
 43
6.35000508
 44
215.9
 45
279.4
 46
0.0
 47
0.0
 48
0.0
 49
0.0
140
0.0
141
0.0
142
1.0
143
1.0
 70
  1712
 72
     1
 73
     0
 74
     0
  7

 75
     0
147
1.0
148
0.0
149
0.0
100
AcDbLayout
  1
Model
 70
     1
 71
     0
 10
0.0
 20
0.0
 11
279.4
 21
215.9
 12
0.0
 22
0.0
 32
0.0
 14
0.0
 24
0.0
 34
0.0
 15
279.4
 25
215.9
 35
0.0
146
0.0
 13
0.0
 23
0.0
 33
0.0
 16
1.0
 26
0.0
 36
0.0
 17
0.0
 27
1.0
 37
0.0
 76
     0
330
1F
331
29
  0
MLINESTYLE
  5
18
102
{ACAD_REACTORS
330
17
102
}
330
17
100
AcDbMlineStyle
  2
Standard
 70
     0
  3

 62
   256
 51
90.0
 52
90.0
 71
     2
 49
0.5
 62
   256
  6
BYLAYER
 49
-0.5
 62
   256
  6
BYLAYER
  0
ACDBPLACEHOLDER
  5
F
102
{ACAD_REACTORS
330
E
102
}
330
E
  0
SCALE
  5
48
102
{ACAD_REACTORS
330
47
102
}
330
47
100
AcDbScale
 70
     0
300
1:1
140
1.0
141
1.0
290
     1
  0
SCALE
  5
49
102
{ACAD_REACTORS
330
47
102
}
330
47
100
AcDbScale
 70
     0
300
1:2
140
1.0
141
2.0
290
     0
  0
SCALE
  5
4A
102
{ACAD_REACTORS
330
47
102
}
330
47
100
AcDbScale
 70
     0
300
1:4
140
1.0
141
4.0
290
     0
  0
SCALE
  5
4B
102
{ACAD_REACTORS
330
47
102
}
330
47
100
AcDbScale
 70
     0
300
1:5
140
1.0
141
5.0
290
     0
  0
SCALE
  5
4C
102
{ACAD_REACTORS
330
47
102
}
330
47
100
AcDbScale
 70
     0
300
1:8
140
1.0
141
8.0
290
     0
  0
SCALE
  5
4D
102
{ACAD_REACTORS
330
47
102
}
330
47
100
AcDbScale
 70
     0
300
1:10
140
1.0
141
10.0
290
     0
  0
SCALE
  5
4E
102
{ACAD_REACTORS
330
47
102
}
330
47
100
AcDbScale
 70
     0
300
1:16
140
1.0
141
16.0
290
     0
  0
SCALE
  5
4F
102
{ACAD_REACTORS
330
47
102
}
330
47
100
AcDbScale
 70
     0
300
1:20
140
1.0
141
20.0
290
     0
  0
SCALE
  5
50
102
{ACAD_REACTORS
330
47
102
}
330
47
100
AcDbScale
 70
     0
300
1:30
140
1.0
141
30.0
290
     0
  0
SCALE
  5
51
102
{ACAD_REACTORS
330
47
102
}
330
47
100
AcDbScale
 70
     0
300
1:40
140
1.0
141
40.0
290
     0
  0
SCALE
  5
52
102
{ACAD_REACTORS
330
47
102
}
330
47
100
AcDbScale
 70
     0
300
1:50
140
1.0
141
50.0
290
     0
  0
SCALE
  5
53
102
{ACAD_REACTORS
330
47
102
}
330
47
100
AcDbScale
 70
     0
300
1:100
140
1.0
141
100.0
290
     0
  0
SCALE
  5
54
102
{ACAD_REACTORS
330
47
102
}
330
47
100
AcDbScale
 70
     0
300
2:1
140
2.0
141
1.0
290
     0
  0
SCALE
  5
55
102
{ACAD_REACTORS
330
47
102
}
330
47
100
AcDbScale
 70
     0
300
4:1
140
4.0
141
1.0
290
     0
  0
SCALE
  5
56
102
{ACAD_REACTORS
330
47
102
}
330
47
100
AcDbScale
 70
     0
300
8:1
140
8.0
141
1.0
290
     0
  0
SCALE
  5
57
102
{ACAD_REACTORS
330
47
102
}
330
47
100
AcDbScale
 70
     0
300
10:1
140
10.0
141
1.0
290
     0
  0
SCALE
  5
58
102
{ACAD_REACTORS
330
47
102
}
330
47
100
AcDbScale
 70
     0
300
100:1
140
100.0
141
1.0
290
     0
  0
SCALE
  5
59
102
{ACAD_REACTORS
330
47
102
}
330
47
100
AcDbScale
 70
     0
300
1/128" = 1'-0"
140
0.0078125
141
12.0
290
     0
  0
SCALE
  5
5A
102
{ACAD_REACTORS
330
47
102
}
330
47
100
AcDbScale
 70
     0
300
1/64" = 1'-0"
140
0.015625
141
12.0
290
     0
  0
SCALE
  5
5B
102
{ACAD_REACTORS
330
47
102
}
330
47
100
AcDbScale
 70
     0
300
1/32" = 1'-0"
140
0.03125
141
12.0
290
     0
  0
SCALE
  5
5C
102
{ACAD_REACTORS
330
47
102
}
330
47
100
AcDbScale
 70
     0
300
1/16" = 1'-0"
140
0.0625
141
12.0
290
     0
  0
SCALE
  5
5D
102
{ACAD_REACTORS
330
47
102
}
330
47
100
AcDbScale
 70
     0
300
3/32" = 1'-0"
140
0.09375
141
12.0
290
     0
  0
SCALE
  5
5E
102
{ACAD_REACTORS
330
47
102
}
330
47
100
AcDbScale
 70
     0
300
1/8" = 1'-0"
140
0.125
141
12.0
290
     0
  0
SCALE
  5
5F
102
{ACAD_REACTORS
330
47
102
}
330
47
100
AcDbScale
 70
     0
300
3/16" = 1'-0"
140
0.1875
141
12.0
290
     0
  0
SCALE
  5
60
102
{ACAD_REACTORS
330
47
102
}
330
47
100
AcDbScale
 70
     0
300
1/4" = 1'-0"
140
0.25
141
12.0
290
     0
  0
SCALE
  5
61
102
{ACAD_REACTORS
330
47
102
}
330
47
100
AcDbScale
 70
     0
300
3/8" = 1'-0"
140
0.375
141
12.0
290
     0
  0
SCALE
  5
62
102
{ACAD_REACTORS
330
47
102
}
330
47
100
AcDbScale
 70
     0
300
1/2" = 1'-0"
140
0.5
141
12.0
290
     0
  0
SCALE
  5
63
102
{ACAD_REACTORS
330
47
102
}
330
47
100
AcDbScale
 70
     0
300
3/4" = 1'-0"
140
0.75
141
12.0
290
     0
  0
SCALE
  5
64
102
{ACAD_REACTORS
330
47
102
}
330
47
100
AcDbScale
 70
     0
300
1" = 1'-0"
140
1.0
141
12.0
290
     0
  0
SCALE
  5
65
102
{ACAD_REACTORS
330
47
102
}
330
47
100
AcDbScale
 70
     0
300
1-1/2" = 1'-0"
140
1.5
141
12.0
290
     0
  0
SCALE
  5
66
102
{ACAD_REACTORS
330
47
102
}
330
47
100
AcDbScale
 70
     0
300
3" = 1'-0"
140
3.0
141
12.0
290
     0
  0
SCALE
  5
67
102
{ACAD_REACTORS
330
47
102
}
330
47
100
AcDbScale
 70
     0
300
6" = 1'-0"
140
6.0
141
12.0
290
     0
  0
SCALE
  5
68
102
{ACAD_REACTORS
330
47
102
}
330
47
100
AcDbScale
 70
     0
300
1'-0" = 1'-0"
140
12.0
141
12.0
290
     0
  0
ENDSEC
  0
EOF
